  0
SECTION
  2
HEADER
  9
$ACADVER
  1
AC1014
  9
$ACADMAINTVER
 70
     5
  9
$DWGCODEPAGE
  3
ANSI_1252
  9
$INSBASE
 10
0.0
 20
0.0
 30
0.0
  9
$EXTMIN
 10
1.000000000000000E+20
 20
1.000000000000000E+20
 30
1.000000000000000E+20
  9
$EXTMAX
 10
-1.000000000000000E+20
 20
-1.000000000000000E+20
 30
-1.000000000000000E+20
  9
$LIMMIN
 10
0.0
 20
0.0
  9
$LIMMAX
 10
12.0
 20
9.0
  9
$ORTHOMODE
 70
     0
  9
$REGENMODE
 70
     1
  9
$FILLMODE
 70
     1
  9
$QTEXTMODE
 70
     0
  9
$MIRRTEXT
 70
     1
  9
$DRAGMODE
 70
     2
  9
$LTSCALE
 40
1.0
  9
$OSMODE
 70
     0
  9
$ATTMODE
 70
     1
  9
$TEXTSIZE
 40
9.999999999999998
  9
$TRACEWID
 40
0.05
  9
$TEXTSTYLE
  7
STANDARD
  9
$CLAYER
  8
0
  9
$CELTYPE
  6
BYLAYER
  9
$CECOLOR
 62
   256
  9
$CELTSCALE
 40
1.0
  9
$DELOBJ
 70
     1
  9
$DISPSILH
 70
     0
  9
$DIMSCALE
 40
1.0
  9
$DIMASZ
 40
0.18
  9
$DIMEXO
 40
0.0625
  9
$DIMDLI
 40
0.38
  9
$DIMRND
 40
0.0
  9
$DIMDLE
 40
0.0
  9
$DIMEXE
 40
0.18
  9
$DIMTP
 40
0.0
  9
$DIMTM
 40
0.0
  9
$DIMTXT
 40
0.1574803149606299
  9
$DIMCEN
 40
0.09
  9
$DIMTSZ
 40
0.0
  9
$DIMTOL
 70
     0
  9
$DIMLIM
 70
     0
  9
$DIMTIH
 70
     1
  9
$DIMTOH
 70
     1
  9
$DIMSE1
 70
     0
  9
$DIMSE2
 70
     0
  9
$DIMTAD
 70
     0
  9
$DIMZIN
 70
     0
  9
$DIMBLK
  1

  9
$DIMASO
 70
     1
  9
$DIMSHO
 70
     1
  9
$DIMPOST
  1

  9
$DIMAPOST
  1

  9
$DIMALT
 70
     0
  9
$DIMALTD
 70
     2
  9
$DIMALTF
 40
25.4
  9
$DIMLFAC
 40
1.0
  9
$DIMTOFL
 70
     0
  9
$DIMTVP
 40
0.0
  9
$DIMTIX
 70
     0
  9
$DIMSOXD
 70
     0
  9
$DIMSAH
 70
     0
  9
$DIMBLK1
  1

  9
$DIMBLK2
  1

  9
$DIMSTYLE
  2
STANDARD
  9
$DIMCLRD
 70
     0
  9
$DIMCLRE
 70
     0
  9
$DIMCLRT
 70
     0
  9
$DIMTFAC
 40
1.0
  9
$DIMGAP
 40
0.09
  9
$DIMJUST
 70
     0
  9
$DIMSD1
 70
     0
  9
$DIMSD2
 70
     0
  9
$DIMTOLJ
 70
     1
  9
$DIMTZIN
 70
     0
  9
$DIMALTZ
 70
     0
  9
$DIMALTTZ
 70
     0
  9
$DIMFIT
 70
     3
  9
$DIMUPT
 70
     0
  9
$DIMUNIT
 70
     4
  9
$DIMDEC
 70
     2
  9
$DIMTDEC
 70
     4
  9
$DIMALTU
 70
     2
  9
$DIMALTTD
 70
     2
  9
$DIMTXSTY
  7
STANDARD
  9
$DIMAUNIT
 70
     1
  9
$LUNITS
 70
     2
  9
$LUPREC
 70
     2
  9
$SKETCHINC
 40
0.1
  9
$FILLETRAD
 40
4.999999999999999
  9
$AUNITS
 70
     0
  9
$AUPREC
 70
     2
  9
$MENU
  1
.
  9
$ELEVATION
 40
0.0
  9
$PELEVATION
 40
0.0
  9
$THICKNESS
 40
0.0
  9
$LIMCHECK
 70
     0
  9
$BLIPMODE
 70
     0
  9
$CHAMFERA
 40
4.999999999999999
  9
$CHAMFERB
 40
4.999999999999999
  9
$CHAMFERC
 40
0.0
  9
$CHAMFERD
 40
0.0
  9
$SKPOLY
 70
     0
  9
$TDCREATE
 40
0.0000000000
  9
$TDUPDATE
 40
0.0000000000
  9
$TDINDWG
 40
0.0000000000
  9
$TDUSRTIMER
 40
0.0000000000
  9
$USRTIMER
 70
     1
  9
$ANGBASE
 50
0.0
  9
$ANGDIR
 70
     0
  9
$PDMODE
 70
     0
  9
$PDSIZE
 40
0.0
  9
$PLINEWID
 40
0.0
  9
$COORDS
 70
     1
  9
$SPLFRAME
 70
     0
  9
$SPLINETYPE
 70
     6
  9
$SPLINESEGS
 70
     8
  9
$ATTDIA
 70
     0
  9
$ATTREQ
 70
     1
  9
$HANDLING
 70
     1
  9
$HANDSEED
  5
301
  9
$SURFTAB1
 70
     6
  9
$SURFTAB2
 70
     6
  9
$SURFTYPE
 70
     6
  9
$SURFU
 70
     6
  9
$SURFV
 70
     6
  9
$UCSNAME
  2

  9
$UCSORG
 10
0.0
 20
0.0
 30
0.0
  9
$UCSXDIR
 10
1.0
 20
0.0
 30
0.0
  9
$UCSYDIR
 10
0.0
 20
1.0
 30
0.0
  9
$PUCSNAME
  2

  9
$PUCSORG
 10
0.0
 20
0.0
 30
0.0
  9
$PUCSXDIR
 10
1.0
 20
0.0
 30
0.0
  9
$PUCSYDIR
 10
0.0
 20
1.0
 30
0.0
  9
$USERI1
 70
     0
  9
$USERI2
 70
     0
  9
$USERI3
 70
     0
  9
$USERI4
 70
     0
  9
$USERI5
 70
     0
  9
$USERR1
 40
0.0
  9
$USERR2
 40
0.0
  9
$USERR3
 40
0.0
  9
$USERR4
 40
0.0
  9
$USERR5
 40
0.0
  9
$WORLDVIEW
 70
     1
  9
$SHADEDGE
 70
     3
  9
$SHADEDIF
 70
    70
  9
$TILEMODE
 70
     1
  9
$MAXACTVP
 70
    48
  9
$PINSBASE
 10
0.0
 20
0.0
 30
0.0
  9
$PLIMCHECK
 70
     0
  9
$PEXTMIN
 10
1.000000000000000E+20
 20
1.000000000000000E+20
 30
1.000000000000000E+20
  9
$PEXTMAX
 10
-1.000000000000000E+20
 20
-1.000000000000000E+20
 30
-1.000000000000000E+20
  9
$PLIMMIN
 10
0.0
 20
0.0
  9
$PLIMMAX
 10
12.0
 20
9.0
  9
$UNITMODE
 70
     0
  9
$VISRETAIN
 70
     1
  9
$PLINEGEN
 70
     0
  9
$PSLTSCALE
 70
     1
  9
$TREEDEPTH
 70
  3020
  9
$PICKSTYLE
 70
     1
  9
$CMLSTYLE
  2
STANDARD
  9
$CMLJUST
 70
     0
  9
$CMLSCALE
 40
1.0
  9
$PROXYGRAPHICS
 70
     1
  9
$MEASUREMENT
 70
     1
  0
ENDSEC
  0
SECTION
  2
CLASSES
  0
ENDSEC
  0
SECTION
  2
TABLES
  0
TABLE
  2
VPORT
  5
8
100
AcDbSymbolTable
 70
     1
  0
VPORT
  5
11
100
AcDbSymbolTableRecord
100
AcDbViewportTableRecord
  2
*ACTIVE
 70
     0
 10
0.0
 20
0.0
 11
1.0
 21
1.0
 12
3.6
 22
4.5
 13
0.0
 23
0.0
 14
1.0
 24
1.0
 15
0.0
 25
0.0
 16
0.0
 26
0.0
 36
1.0
 17
0.0
 27
0.0
 37
0.0
 40
15.0
 41
0.8
 42
50.0
 43
0.0
 44
0.0
 50
0.0
 51
0.0
 71
     0
 72
   100
 73
     1
 74
     1
 75
     0
 76
     0
 77
     0
 78
     0
  0
ENDTAB
  0
TABLE
  2
LTYPE
  5
5
100
AcDbSymbolTable
 70
    48
  0
LTYPE
  5
12
100
AcDbSymbolTableRecord
100
AcDbLinetypeTableRecord
  2
BYBLOCK
 70
     0
  3

 72
    65
 73
     0
 40
0.0
  0
LTYPE
  5
13
100
AcDbSymbolTableRecord
100
AcDbLinetypeTableRecord
  2
BYLAYER
 70
     0
  3

 72
    65
 73
     0
 40
0.0
  0
LTYPE
  5
14
100
AcDbSymbolTableRecord
100
AcDbLinetypeTableRecord
  2
CONTINUOUS
 70
     0
  3
Solid line
 72
    65
 73
     0
 40
0.0
  0
LTYPE
  5
1E
100
AcDbSymbolTableRecord
100
AcDbLinetypeTableRecord
  2
HIDDEN
 70
     0
  3
_ _ _ _ _ _ _ _ _ _ _ _ _ _ 
 72
    65
 73
     2
 40
9.524999999999998
 49
6.349999999999999
 74
     0
 49
-3.174999999999999
 74
     0
  0
LTYPE
  5
1F
100
AcDbSymbolTableRecord
100
AcDbLinetypeTableRecord
  2
DASHED
 70
     0
  3
__ __ __ __ __ __ __ __ __ 
 72
    65
 73
     2
 40
19.04999999999999
 49
12.7
 74
     0
 49
-6.349999999999999
 74
     0
  0
LTYPE
  5
20
100
AcDbSymbolTableRecord
100
AcDbLinetypeTableRecord
  2
CENTER
 70
     0
  3
____ _ ____ _ ____ _ ____ _ 
 72
    65
 73
     4
 40
50.8
 49
31.75
 74
     0
 49
-6.349999999999999
 74
     0
 49
6.349999999999999
 74
     0
 49
-6.349999999999999
 74
     0
  0
LTYPE
  5
21
100
AcDbSymbolTableRecord
100
AcDbLinetypeTableRecord
  2
PHANTOM
 70
     0
  3
_____ _ _ _____ _ _ _____ _ _ 
 72
    65
 73
     6
 40
63.50000000000001
 49
31.75
 74
     0
 49
-6.349999999999999
 74
     0
 49
6.349999999999999
 74
     0
 49
-6.349999999999999
 74
     0
 49
6.349999999999999
 74
     0
 49
-6.349999999999999
 74
     0
  0
LTYPE
  5
22
100
AcDbSymbolTableRecord
100
AcDbLinetypeTableRecord
  2
DOT
 70
     0
  3
...........................
 72
    65
 73
     2
 40
6.349999999999999
 49
0.0
 74
     0
 49
-6.349999999999999
 74
     0
  0
LTYPE
  5
23
100
AcDbSymbolTableRecord
100
AcDbLinetypeTableRecord
  2
DASHDOT
 70
     0
  3
__ . __ . __ . __ . __ . __ . 
 72
    65
 73
     4
 40
25.4
 49
12.7
 74
     0
 49
-6.349999999999999
 74
     0
 49
0.0
 74
     0
 49
-6.349999999999999
 74
     0
  0
LTYPE
  5
24
100
AcDbSymbolTableRecord
100
AcDbLinetypeTableRecord
  2
DIVIDE
 70
     0
  3
__ . . __ . . __ . . __ . . 
 72
    65
 73
     6
 40
31.75
 49
12.7
 74
     0
 49
-6.349999999999999
 74
     0
 49
0.0
 74
     0
 49
-6.349999999999999
 74
     0
 49
0.0
 74
     0
 49
-6.349999999999999
 74
     0
  0
LTYPE
  5
25
100
AcDbSymbolTableRecord
100
AcDbLinetypeTableRecord
  2
BORDER
 70
     0
  3
__ __ . __ __ . __ __ . __ __ .
 72
    65
 73
     6
 40
44.44999999999999
 49
12.7
 74
     0
 49
-6.349999999999999
 74
     0
 49
12.7
 74
     0
 49
-6.349999999999999
 74
     0
 49
0.0
 74
     0
 49
-6.349999999999999
 74
     0
  0
LTYPE
  5
26
100
AcDbSymbolTableRecord
100
AcDbLinetypeTableRecord
  2
BORDURE
 70
     0
  3
Bordure __ __ . __ __ . __ __ .
 72
    65
 73
     6
 40
1.75
 49
0.5
 74
     0
 49
-0.25
 74
     0
 49
0.5
 74
     0
 49
-0.25
 74
     0
 49
0.0
 74
     0
 49
-0.25
 74
     0
  0
LTYPE
  5
27
100
AcDbSymbolTableRecord
100
AcDbLinetypeTableRecord
  2
BORDURE2
 70
     0
  3
Bordure (.5x) __.__.__.__.__.__
 72
    65
 73
     6
 40
0.875
 49
0.25
 74
     0
 49
-0.125
 74
     0
 49
0.25
 74
     0
 49
-0.125
 74
     0
 49
0.0
 74
     0
 49
-0.125
 74
     0
  0
LTYPE
  5
28
100
AcDbSymbolTableRecord
100
AcDbLinetypeTableRecord
  2
BORDUREX2
 70
     0
  3
Bordure (2x) ____  ____  .  ___
 72
    65
 73
     6
 40
3.5
 49
1.0
 74
     0
 49
-0.5
 74
     0
 49
1.0
 74
     0
 49
-0.5
 74
     0
 49
0.0
 74
     0
 49
-0.5
 74
     0
  0
LTYPE
  5
29
100
AcDbSymbolTableRecord
100
AcDbLinetypeTableRecord
  2
AXES
 70
     0
  3
Centre ____ _ ____ _ ____ _ ___
 72
    65
 73
     4
 40
2.0
 49
1.25
 74
     0
 49
-0.25
 74
     0
 49
0.25
 74
     0
 49
-0.25
 74
     0
  0
LTYPE
  5
2A
100
AcDbSymbolTableRecord
100
AcDbLinetypeTableRecord
  2
AXES2
 70
     0
  3
Centre (.5x) ___ _ ___ _ ___ _ 
 72
    65
 73
     4
 40
1.125
 49
0.7500000000000001
 74
     0
 49
-0.125
 74
     0
 49
0.125
 74
     0
 49
-0.125
 74
     0
  0
LTYPE
  5
2B
100
AcDbSymbolTableRecord
100
AcDbLinetypeTableRecord
  2
AXESX2
 70
     0
  3
Centre (2x) ________  __  _____
 72
    65
 73
     4
 40
4.0
 49
2.5
 74
     0
 49
-0.5
 74
     0
 49
0.5
 74
     0
 49
-0.5
 74
     0
  0
LTYPE
  5
2C
100
AcDbSymbolTableRecord
100
AcDbLinetypeTableRecord
  2
TIRETPT
 70
     0
  3
Tiret point __ . __ . __ . __ .
 72
    65
 73
     4
 40
1.0
 49
0.5
 74
     0
 49
-0.25
 74
     0
 49
0.0
 74
     0
 49
-0.25
 74
     0
  0
LTYPE
  5
2D
100
AcDbSymbolTableRecord
100
AcDbLinetypeTableRecord
  2
TIRETPT2
 70
     0
  3
Tiret point (.5x) _._._._._._._
 72
    65
 73
     4
 40
0.5
 49
0.25
 74
     0
 49
-0.125
 74
     0
 49
0.0
 74
     0
 49
-0.125
 74
     0
  0
LTYPE
  5
2E
100
AcDbSymbolTableRecord
100
AcDbLinetypeTableRecord
  2
TIRETPTX2
 70
     0
  3
Tiret point (2x) ____  .  ____ 
 72
    65
 73
     4
 40
2.0
 49
1.0
 74
     0
 49
-0.5
 74
     0
 49
0.0
 74
     0
 49
-0.5
 74
     0
  0
LTYPE
  5
2F
100
AcDbSymbolTableRecord
100
AcDbLinetypeTableRecord
  2
INTERROMPU
 70
     0
  3
Interrompu __ __ __ __ __ __ __
 72
    65
 73
     2
 40
0.75
 49
0.5
 74
     0
 49
-0.25
 74
     0
  0
LTYPE
  5
30
100
AcDbSymbolTableRecord
100
AcDbLinetypeTableRecord
  2
INTERROMPU2
 70
     0
  3
Interrompu (.5x) _ _ _ _ _ _ _ 
 72
    65
 73
     2
 40
0.375
 49
0.25
 74
     0
 49
-0.125
 74
     0
  0
LTYPE
  5
31
100
AcDbSymbolTableRecord
100
AcDbLinetypeTableRecord
  2
INTERROMPUX2
 70
     0
  3
Interrompu (2x) ____  ____  ___
 72
    65
 73
     2
 40
1.5
 49
1.0
 74
     0
 49
-0.5
 74
     0
  0
LTYPE
  5
32
100
AcDbSymbolTableRecord
100
AcDbLinetypeTableRecord
  2
DIVISE
 70
     0
  3
Divisé ____ . . ____ . . ____ .
 72
    65
 73
     6
 40
1.25
 49
0.5
 74
     0
 49
-0.25
 74
     0
 49
0.0
 74
     0
 49
-0.25
 74
     0
 49
0.0
 74
     0
 49
-0.25
 74
     0
  0
LTYPE
  5
33
100
AcDbSymbolTableRecord
100
AcDbLinetypeTableRecord
  2
DIVISE2
 70
     0
  3
Divisé (.5x) __..__..__..__..__
 72
    65
 73
     6
 40
0.625
 49
0.25
 74
     0
 49
-0.125
 74
     0
 49
0.0
 74
     0
 49
-0.125
 74
     0
 49
0.0
 74
     0
 49
-0.125
 74
     0
  0
LTYPE
  5
34
100
AcDbSymbolTableRecord
100
AcDbLinetypeTableRecord
  2
DIVISEX2
 70
     0
  3
Divisé (2x) ________  .  .  ___
 72
    65
 73
     6
 40
2.5
 49
1.0
 74
     0
 49
-0.5
 74
     0
 49
0.0
 74
     0
 49
-0.5
 74
     0
 49
0.0
 74
     0
 49
-0.5
 74
     0
  0
LTYPE
  5
35
100
AcDbSymbolTableRecord
100
AcDbLinetypeTableRecord
  2
POINTILLE
 70
     0
  3
Pointillé. . . . . . . . . . . 
 72
    65
 73
     2
 40
0.25
 49
0.0
 74
     0
 49
-0.25
 74
     0
  0
LTYPE
  5
36
100
AcDbSymbolTableRecord
100
AcDbLinetypeTableRecord
  2
POINTILLE2
 70
     0
  3
Pointillé (.5x) ...............
 72
    65
 73
     2
 40
0.125
 49
0.0
 74
     0
 49
-0.125
 74
     0
  0
LTYPE
  5
37
100
AcDbSymbolTableRecord
100
AcDbLinetypeTableRecord
  2
POINTILLEX2
 70
     0
  3
Pointillé (2x) .  .  .  .  .  .
 72
    65
 73
     2
 40
0.5
 49
0.0
 74
     0
 49
-0.5
 74
     0
  0
LTYPE
  5
38
100
AcDbSymbolTableRecord
100
AcDbLinetypeTableRecord
  2
CACHE
 70
     0
  3
Caché __ __ __ __ __ __ __ __ _
 72
    65
 73
     2
 40
0.375
 49
0.25
 74
     0
 49
-0.125
 74
     0
  0
LTYPE
  5
39
100
AcDbSymbolTableRecord
100
AcDbLinetypeTableRecord
  2
CACHE2
 70
     0
  3
Caché (.5x) _ _ _ _ _ _ _ _ _ _
 72
    65
 73
     2
 40
0.1875
 49
0.125
 74
     0
 49
-0.0625
 74
     0
  0
LTYPE
  5
3A
100
AcDbSymbolTableRecord
100
AcDbLinetypeTableRecord
  2
CACHEX2
 70
     0
  3
Caché (2x) ____ ____ ____ ____ 
 72
    65
 73
     2
 40
0.75
 49
0.5
 74
     0
 49
-0.25
 74
     0
  0
LTYPE
  5
3B
100
AcDbSymbolTableRecord
100
AcDbLinetypeTableRecord
  2
FANTOME
 70
     0
  3
Fantôme ______  __  __  ______ 
 72
    65
 73
     6
 40
2.5
 49
1.25
 74
     0
 49
-0.25
 74
     0
 49
0.25
 74
     0
 49
-0.25
 74
     0
 49
0.25
 74
     0
 49
-0.25
 74
     0
  0
LTYPE
  5
3C
100
AcDbSymbolTableRecord
100
AcDbLinetypeTableRecord
  2
FANTOME2
 70
     0
  3
Fantôme (.5x) ___ _ _ ___ _ _ _
 72
    65
 73
     6
 40
1.25
 49
0.6250000000000001
 74
     0
 49
-0.125
 74
     0
 49
0.125
 74
     0
 49
-0.125
 74
     0
 49
0.125
 74
     0
 49
-0.125
 74
     0
  0
LTYPE
  5
3D
100
AcDbSymbolTableRecord
100
AcDbLinetypeTableRecord
  2
FANTOMEX2
 70
     0
  3
Fantôme (2x) ____________    __
 72
    65
 73
     6
 40
5.0
 49
2.5
 74
     0
 49
-0.5
 74
     0
 49
0.5
 74
     0
 49
-0.5
 74
     0
 49
0.5
 74
     0
 49
-0.5
 74
     0
  0
LTYPE
  5
3E
100
AcDbSymbolTableRecord
100
AcDbLinetypeTableRecord
  2
DOTS
 70
     0
  3
Points - - - - - - - - - - - - 
 72
    65
 73
     2
 40
0.1
 49
0.05
 74
     0
 49
-0.05
 74
     0
  0
LTYPE
  5
3F
100
AcDbSymbolTableRecord
100
AcDbLinetypeTableRecord
  2
ACAD_ISO02W100
 70
     0
  3
__ __ __ __ __ __ __ __ __ __ _
 72
    65
 73
     2
 40
15.0
 49
12.0
 74
     0
 49
-3.0
 74
     0
  0
LTYPE
  5
40
100
AcDbSymbolTableRecord
100
AcDbLinetypeTableRecord
  2
ACAD_ISO03W100
 70
     0
  3
__    __    __    __    __    _
 72
    65
 73
     2
 40
30.0
 49
12.0
 74
     0
 49
-18.0
 74
     0
  0
LTYPE
  5
41
100
AcDbSymbolTableRecord
100
AcDbLinetypeTableRecord
  2
ACAD_ISO04W100
 70
     0
  3
____ . ____ . ____ . ____ . ___
 72
    65
 73
     4
 40
30.5
 49
24.0
 74
     0
 49
-3.0
 74
     0
 49
0.5
 74
     0
 49
-3.0
 74
     0
  0
LTYPE
  5
42
100
AcDbSymbolTableRecord
100
AcDbLinetypeTableRecord
  2
ACAD_ISO05W100
 70
     0
  3
____ .. ____ .. ____ .. ____ ..
 72
    65
 73
     6
 40
34.0
 49
24.0
 74
     0
 49
-3.0
 74
     0
 49
0.5
 74
     0
 49
-3.0
 74
     0
 49
0.5
 74
     0
 49
-3.0
 74
     0
  0
LTYPE
  5
43
100
AcDbSymbolTableRecord
100
AcDbLinetypeTableRecord
  2
ACAD_ISO06W100
 70
     0
  3
____ ... ____ ... ____ ... ____
 72
    65
 73
     6
 40
34.0
 49
24.0
 74
     0
 49
-3.0
 74
     0
 49
0.5
 74
     0
 49
-3.0
 74
     0
 49
0.5
 74
     0
 49
-3.0
 74
     0
  0
LTYPE
  5
44
100
AcDbSymbolTableRecord
100
AcDbLinetypeTableRecord
  2
ACAD_ISO07W100
 70
     0
  3
. . . . . . . . . . . . . . . .
 72
    65
 73
     2
 40
3.5
 49
0.5
 74
     0
 49
-3.0
 74
     0
  0
LTYPE
  5
45
100
AcDbSymbolTableRecord
100
AcDbLinetypeTableRecord
  2
ACAD_ISO08W100
 70
     0
  3
____ __ ____ __ ____ __ ____ __
 72
    65
 73
     4
 40
36.0
 49
24.0
 74
     0
 49
-3.0
 74
     0
 49
6.0
 74
     0
 49
-3.0
 74
     0
  0
LTYPE
  5
46
100
AcDbSymbolTableRecord
100
AcDbLinetypeTableRecord
  2
ACAD_ISO09W100
 70
     0
  3
____ __ __ ____ __ __ ____ __ _
 72
    65
 73
     6
 40
45.0
 49
24.0
 74
     0
 49
-3.0
 74
     0
 49
6.0
 74
     0
 49
-3.0
 74
     0
 49
6.0
 74
     0
 49
-3.0
 74
     0
  0
LTYPE
  5
47
100
AcDbSymbolTableRecord
100
AcDbLinetypeTableRecord
  2
ACAD_ISO10W100
 70
     0
  3
__ . __ . __ . __ . __ . __ . _
 72
    65
 73
     4
 40
18.5
 49
12.0
 74
     0
 49
-3.0
 74
     0
 49
0.5
 74
     0
 49
-3.0
 74
     0
  0
LTYPE
  5
48
100
AcDbSymbolTableRecord
100
AcDbLinetypeTableRecord
  2
ACAD_ISO11W100
 70
     0
  3
__ __ . __ __ . __ __ . __ __ .
 72
    65
 73
     6
 40
33.5
 49
12.0
 74
     0
 49
-3.0
 74
     0
 49
12.0
 74
     0
 49
-3.0
 74
     0
 49
0.5
 74
     0
 49
-3.0
 74
     0
  0
LTYPE
  5
49
100
AcDbSymbolTableRecord
100
AcDbLinetypeTableRecord
  2
ACAD_ISO12W100
 70
     0
  3
__ . . __ . . __ . . __ . . __ 
 72
    65
 73
     6
 40
22.0
 49
12.0
 74
     0
 49
-3.0
 74
     0
 49
0.5
 74
     0
 49
-3.0
 74
     0
 49
0.5
 74
     0
 49
-3.0
 74
     0
  0
LTYPE
  5
4A
100
AcDbSymbolTableRecord
100
AcDbLinetypeTableRecord
  2
ACAD_ISO13W100
 70
     0
  3
__ __ . . __ __ . . __ __ . . _
 72
    65
 73
     6
 40
33.5
 49
12.0
 74
     0
 49
-3.0
 74
     0
 49
12.0
 74
     0
 49
-3.0
 74
     0
 49
0.5
 74
     0
 49
-3.0
 74
     0
  0
LTYPE
  5
4B
100
AcDbSymbolTableRecord
100
AcDbLinetypeTableRecord
  2
ACAD_ISO14W100
 70
     0
  3
__ . . . __ . . . __ . . . __ .
 72
    65
 73
     6
 40
22.0
 49
12.0
 74
     0
 49
-3.0
 74
     0
 49
0.5
 74
     0
 49
-3.0
 74
     0
 49
0.5
 74
     0
 49
-3.0
 74
     0
  0
LTYPE
  5
4C
100
AcDbSymbolTableRecord
100
AcDbLinetypeTableRecord
  2
ACAD_ISO15W100
 70
     0
  3
__ __ . . . __ __ . . . __ __ .
 72
    65
 73
     6
 40
33.5
 49
12.0
 74
     0
 49
-3.0
 74
     0
 49
12.0
 74
     0
 49
-3.0
 74
     0
 49
0.5
 74
     0
 49
-3.0
 74
     0
  0
ENDTAB
  0
TABLE
  2
LAYER
  5
2
100
AcDbSymbolTable
 70
     5
  0
LAYER
  5
E
100
AcDbSymbolTableRecord
100
AcDbLayerTableRecord
  2
0
 70
     0
 62
     7
  6
CONTINUOUS
  0
LAYER
  5
4D
100
AcDbSymbolTableRecord
100
AcDbLayerTableRecord
  2
1
 70
     0
 62
     7
  6
CONTINUOUS
  0
LAYER
  5
4E
100
AcDbSymbolTableRecord
100
AcDbLayerTableRecord
  2
PLAN01
 70
     0
 62
     7
  6
CONTINUOUS
  0
LAYER
  5
4F
100
AcDbSymbolTableRecord
100
AcDbLayerTableRecord
  2
PLAN02
 70
     0
 62
     7
  6
CONTINUOUS
  0
LAYER
  5
50
100
AcDbSymbolTableRecord
100
AcDbLayerTableRecord
  2
PLAN10
 70
     0
 62
     7
  6
CONTINUOUS
  0
ENDTAB
  0
TABLE
  2
STYLE
  5
3
100
AcDbSymbolTable
 70
     6
  0
STYLE
  5
F
100
AcDbSymbolTableRecord
100
AcDbTextStyleTableRecord
  2
STANDARD
 70
     0
 40
0.0
 41
1.0
 50
0.0
 71
     0
 42
9.999999999999998
  3
txt
  4

  0
STYLE
  5
51
100
AcDbSymbolTableRecord
100
AcDbTextStyleTableRecord
  2
ITALIC
 70
     0
 40
0.0
 41
1.0
 50
0.0
 71
     0
 42
9.999999999999998
  3
ITALIC
  4

  0
STYLE
  5
52
100
AcDbSymbolTableRecord
100
AcDbTextStyleTableRecord
  2
SIMPLEX
 70
     0
 40
0.0
 41
1.0
 50
0.0
 71
     0
 42
9.999999999999998
  3
SIMPLEX
  4

  0
STYLE
  5
53
100
AcDbSymbolTableRecord
100
AcDbTextStyleTableRecord
  2
COMPLEX
 70
     0
 40
0.0
 41
1.0
 50
0.0
 71
     0
 42
9.999999999999998
  3
COMPLEX
  4

  0
STYLE
  5
54
100
AcDbSymbolTableRecord
100
AcDbTextStyleTableRecord
  2
VERDANABI
 70
     0
 40
0.0
 41
1.0
 50
0.0
 71
     0
 42
9.999999999999998
  3

  4

1001
ACAD
1000
Verdana
1071
 50331648
  0
STYLE
  5
56
100
AcDbSymbolTableRecord
100
AcDbTextStyleTableRecord
  2
VERDANA
 70
     0
 40
0.0
 41
1.0
 50
0.0
 71
     0
 42
9.999999999999998
  3
verdana.TTF
  4

1001
ACAD
1000
Verdana
1071
        0
  0
ENDTAB
  0
TABLE
  2
VIEW
  5
6
100
AcDbSymbolTable
 70
     0
  0
ENDTAB
  0
TABLE
  2
UCS
  5
7
100
AcDbSymbolTable
 70
     0
  0
ENDTAB
  0
TABLE
  2
APPID
  5
9
100
AcDbSymbolTable
 70
     1
  0
APPID
  5
10
100
AcDbSymbolTableRecord
100
AcDbRegAppTableRecord
  2
ACAD
 70
     0
  0
ENDTAB
  0
TABLE
  2
DIMSTYLE
  5
A
100
AcDbSymbolTable
 70
     1
  0
DIMSTYLE
105
1D
100
AcDbSymbolTableRecord
100
AcDbDimStyleTableRecord
  2
STANDARD
 70
     0
  3

  4

  5

  6

  7

 40
1.0
 41
0.18
 42
0.0625
 43
0.38
 44
0.18
 45
0.0
 46
0.0
 47
0.0
 48
0.0
140
0.18
141
0.09
142
0.0
143
25.4
144
1.0
145
0.0
146
1.0
147
0.09
 71
     0
 72
     0
 73
     1
 74
     1
 75
     0
 76
     0
 77
     0
 78
     0
170
     0
171
     2
172
     0
173
     0
174
     0
175
     0
176
     0
177
     0
178
     0
270
     2
271
     4
272
     4
273
     2
274
     2
340
F
275
     0
280
     0
281
     0
282
     0
283
     1
284
     0
285
     0
286
     0
287
     3
288
     0
  0
ENDTAB
  0
TABLE
  2
BLOCK_RECORD
  5
1
100
AcDbSymbolTable
 70
     0
  0
BLOCK_RECORD
  5
18
100
AcDbSymbolTableRecord
100
AcDbBlockTableRecord
  2
*MODEL_SPACE
  0
BLOCK_RECORD
  5
15
100
AcDbSymbolTableRecord
100
AcDbBlockTableRecord
  2
*PAPER_SPACE
  0
ENDTAB
  0
ENDSEC
  0
SECTION
  2
BLOCKS
  0
BLOCK
  5
19
100
AcDbEntity
  8
0
100
AcDbBlockBegin
  2
*MODEL_SPACE
 70
     0
 10
0.0
 20
0.0
 30
0.0
  3
*MODEL_SPACE
  1

  0
ENDBLK
  5
1A
100
AcDbEntity
  8
0
100
AcDbBlockEnd
  0
BLOCK
  5
16
100
AcDbEntity
 67
     1
  8
0
100
AcDbBlockBegin
  2
*PAPER_SPACE
 70
     0
 10
0.0
 20
0.0
 30
0.0
  3
*PAPER_SPACE
  1

  0
ENDBLK
  5
17
100
AcDbEntity
 67
     1
  8
0
100
AcDbBlockEnd
  0
ENDSEC
  0
SECTION
  2
ENTITIES
  0
TEXT
  5
55
100
AcDbEntity
  8
1
  6
CONTINUOUS
 62
     7
100
AcDbText
 10
21.38994770089461
 20
241.1897298895649
 30
0.0
 40
37.26020926002101
  1
Padawan
  7
VERDANABI
100
AcDbText
  0
TEXT
  5
57
100
AcDbEntity
  8
1
  6
CONTINUOUS
 62
     7
100
AcDbText
 10
21.00328346653629
 20
192.8362124188167
 30
0.0
 40
12.40903949601054
  1
Section: TP60J
  7
VERDANA
100
AcDbText
  0
TEXT
  5
58
100
AcDbEntity
  8
1
  6
CONTINUOUS
 62
     7
100
AcDbText
 10
21.00328346653631
 20
172.7448529795043
 30
0.0
 40
12.40903949601054
  1
Wingspan: 82cm 
  7
VERDANA
100
AcDbText
  0
TEXT
  5
59
100
AcDbEntity
  8
1
  6
CONTINUOUS
 62
     7
100
AcDbText
 10
20.35392144202842
 20
133.635814515847
 30
0.0
 40
12.40903949601054
  1
Construction: EPP and Depron 6 mm
  7
VERDANA
100
AcDbText
  0
TEXT
  5
5A
100
AcDbEntity
  8
1
  6
CONTINUOUS
 62
     7
100
AcDbText
 10
20.29107995578507
 20
152.5506683419443
 30
0.0
 40
12.40903949601054
  1
Length: 55 cm
  7
VERDANA
100
AcDbText
  0
MTEXT
  5
5B
100
AcDbEntity
  8
1
  6
CONTINUOUS
 62
     7
100
AcDbMText
 10
21.52942768159057
 20
61.86047155579553
 30
0.0
 40
15.0
 41
0.0
 71
     7
 72
     1
  1
Design: Pierre Rondel \P(planet-soaring.com)
  7
VERDANA
  0
POLYLINE
  5
5C
100
AcDbEntity
  8
PLAN01
  6
CONTINUOUS
 62
     5
100
AcDb2dPolyline
 66
     1
 10
0.0
 20
0.0
 30
0.0
  0
VERTEX
  5
5D
100
AcDbEntity
  8
PLAN01
  6
CONTINUOUS
 62
     5
100
AcDbVertex
100
AcDb2dVertex
 10
188.0523670090265
 20
934.952950992214
 30
0.0
  0
VERTEX
  5
5E
100
AcDbEntity
  8
PLAN01
  6
CONTINUOUS
 62
     5
100
AcDbVertex
100
AcDb2dVertex
 10
188.2213163382631
 20
934.1094007890122
 30
0.0
  0
VERTEX
  5
5F
100
AcDbEntity
  8
PLAN01
  6
CONTINUOUS
 62
     5
100
AcDbVertex
100
AcDb2dVertex
 10
188.4490639826678
 20
933.3028950850362
 30
0.0
  0
VERTEX
  5
60
100
AcDbEntity
  8
PLAN01
  6
CONTINUOUS
 62
     5
100
AcDbVertex
100
AcDb2dVertex
 10
188.7491431951535
 20
932.5598016743768
 30
0.0
  0
VERTEX
  5
61
100
AcDbEntity
  8
PLAN01
  6
CONTINUOUS
 62
     5
100
AcDbVertex
100
AcDb2dVertex
 10
189.0223448240165
 20
932.0362721891237
 30
0.0
  0
VERTEX
  5
62
100
AcDbEntity
  8
PLAN01
  6
CONTINUOUS
 62
     5
100
AcDbVertex
100
AcDb2dVertex
 10
189.320564898907
 20
931.5479233992352
 30
0.0
  0
VERTEX
  5
63
100
AcDbEntity
  8
PLAN01
  6
CONTINUOUS
 62
     5
100
AcDbVertex
100
AcDb2dVertex
 10
189.6449982916278
 20
931.1031020896068
 30
0.0
  0
VERTEX
  5
64
100
AcDbEntity
  8
PLAN01
  6
CONTINUOUS
 62
     5
100
AcDbVertex
100
AcDb2dVertex
 10
190.3794517949472
 20
930.2537265147673
 30
0.0
  0
VERTEX
  5
65
100
AcDbEntity
  8
PLAN01
  6
CONTINUOUS
 62
     5
100
AcDbVertex
100
AcDb2dVertex
 10
191.1442826232173
 20
929.4897988951175
 30
0.0
  0
VERTEX
  5
66
100
AcDbEntity
  8
PLAN01
  6
CONTINUOUS
 62
     5
100
AcDbVertex
100
AcDb2dVertex
 10
191.9368535613128
 20
928.8073674172824
 30
0.0
  0
VERTEX
  5
67
100
AcDbEntity
  8
PLAN01
  6
CONTINUOUS
 62
     5
100
AcDbVertex
100
AcDb2dVertex
 10
192.7545273942229
 20
928.2024802678877
 30
0.0
  0
VERTEX
  5
68
100
AcDbEntity
  8
PLAN01
  6
CONTINUOUS
 62
     5
100
AcDbVertex
100
AcDb2dVertex
 10
193.594666906806
 20
927.6711856335571
 30
0.0
  0
VERTEX
  5
69
100
AcDbEntity
  8
PLAN01
  6
CONTINUOUS
 62
     5
100
AcDbVertex
100
AcDb2dVertex
 10
194.4546348840351
 20
927.2095317009169
 30
0.0
  0
VERTEX
  5
6A
100
AcDbEntity
  8
PLAN01
  6
CONTINUOUS
 62
     5
100
AcDbVertex
100
AcDb2dVertex
 10
195.3317941108011
 20
926.8135666565921
 30
0.0
  0
VERTEX
  5
6B
100
AcDbEntity
  8
PLAN01
  6
CONTINUOUS
 62
     5
100
AcDbVertex
100
AcDb2dVertex
 10
196.2235073720441
 20
926.4793386872076
 30
0.0
  0
VERTEX
  5
6C
100
AcDbEntity
  8
PLAN01
  6
CONTINUOUS
 62
     5
100
AcDbVertex
100
AcDb2dVertex
 10
197.1271374526879
 20
926.2028959793905
 30
0.0
  0
VERTEX
  5
6D
100
AcDbEntity
  8
PLAN01
  6
CONTINUOUS
 62
     5
100
AcDbVertex
100
AcDb2dVertex
 10
198.0400471376565
 20
925.9802867197638
 30
0.0
  0
VERTEX
  5
6E
100
AcDbEntity
  8
PLAN01
  6
CONTINUOUS
 62
     5
100
AcDbVertex
100
AcDb2dVertex
 10
198.9595992118735
 20
925.8075590949534
 30
0.0
  0
VERTEX
  5
6F
100
AcDbEntity
  8
PLAN01
  6
CONTINUOUS
 62
     5
100
AcDbVertex
100
AcDb2dVertex
 10
199.883156460279
 20
925.6807612915839
 30
0.0
  0
VERTEX
  5
70
100
AcDbEntity
  8
PLAN01
  6
CONTINUOUS
 62
     5
100
AcDbVertex
100
AcDb2dVertex
 10
200.8080816677479
 20
925.5959414962813
 30
0.0
  0
VERTEX
  5
71
100
AcDbEntity
  8
PLAN01
  6
CONTINUOUS
 62
     5
100
AcDbVertex
100
AcDb2dVertex
 10
201.7317376192532
 20
925.5491478956711
 30
0.0
  0
VERTEX
  5
72
100
AcDbEntity
  8
PLAN01
  6
CONTINUOUS
 62
     5
100
AcDbVertex
100
AcDb2dVertex
 10
202.6514870997019
 20
925.5364286763779
 30
0.0
  0
SEQEND
  5
73
100
AcDbEntity
  8
PLAN01
  6
CONTINUOUS
 62
     5
  0
POLYLINE
  5
74
100
AcDbEntity
  8
PLAN01
  6
CONTINUOUS
 62
     5
100
AcDb2dPolyline
 66
     1
 10
0.0
 20
0.0
 30
0.0
  0
VERTEX
  5
75
100
AcDbEntity
  8
PLAN01
  6
CONTINUOUS
 62
     5
100
AcDbVertex
100
AcDb2dVertex
 10
390.8135991041486
 20
948.1372828109646
 30
0.0
  0
VERTEX
  5
76
100
AcDbEntity
  8
PLAN01
  6
CONTINUOUS
 62
     5
100
AcDbVertex
100
AcDb2dVertex
 10
390.6288240602962
 20
947.3566935563731
 30
0.0
  0
VERTEX
  5
77
100
AcDbEntity
  8
PLAN01
  6
CONTINUOUS
 62
     5
100
AcDbVertex
100
AcDb2dVertex
 10
390.395690808663
 20
946.6100438538394
 30
0.0
  0
VERTEX
  5
78
100
AcDbEntity
  8
PLAN01
  6
CONTINUOUS
 62
     5
100
AcDbVertex
100
AcDb2dVertex
 10
390.1053375962557
 20
945.9162161363838
 30
0.0
  0
VERTEX
  5
79
100
AcDbEntity
  8
PLAN01
  6
CONTINUOUS
 62
     5
100
AcDbVertex
100
AcDb2dVertex
 10
389.7736282398192
 20
945.2785944652402
 30
0.0
  0
VERTEX
  5
7A
100
AcDbEntity
  8
PLAN01
  6
CONTINUOUS
 62
     5
100
AcDbVertex
100
AcDb2dVertex
 10
389.4127985039121
 20
944.6819396165256
 30
0.0
  0
VERTEX
  5
7B
100
AcDbEntity
  8
PLAN01
  6
CONTINUOUS
 62
     5
100
AcDbVertex
100
AcDb2dVertex
 10
389.0193366174726
 20
944.1393627967194
 30
0.0
  0
VERTEX
  5
7C
100
AcDbEntity
  8
PLAN01
  6
CONTINUOUS
 62
     5
100
AcDbVertex
100
AcDb2dVertex
 10
388.1983037396979
 20
943.2017065819191
 30
0.0
  0
VERTEX
  5
7D
100
AcDbEntity
  8
PLAN01
  6
CONTINUOUS
 62
     5
100
AcDbVertex
100
AcDb2dVertex
 10
387.339741609616
 20
942.377886474496
 30
0.0
  0
VERTEX
  5
7E
100
AcDbEntity
  8
PLAN01
  6
CONTINUOUS
 62
     5
100
AcDbVertex
100
AcDb2dVertex
 10
386.4472077221117
 20
941.662293269902
 30
0.0
  0
VERTEX
  5
7F
100
AcDbEntity
  8
PLAN01
  6
CONTINUOUS
 62
     5
100
AcDbVertex
100
AcDb2dVertex
 10
385.5242595720381
 20
941.0493177635897
 30
0.0
  0
VERTEX
  5
80
100
AcDbEntity
  8
PLAN01
  6
CONTINUOUS
 62
     5
100
AcDbVertex
100
AcDb2dVertex
 10
384.5744546542487
 20
940.5333507510119
 30
0.0
  0
VERTEX
  5
81
100
AcDbEntity
  8
PLAN01
  6
CONTINUOUS
 62
     5
100
AcDbVertex
100
AcDb2dVertex
 10
383.6013504635799
 20
940.1087830276205
 30
0.0
  0
VERTEX
  5
82
100
AcDbEntity
  8
PLAN01
  6
CONTINUOUS
 62
     5
100
AcDbVertex
100
AcDb2dVertex
 10
382.6085044949337
 20
939.7700053888675
 30
0.0
  0
VERTEX
  5
83
100
AcDbEntity
  8
PLAN01
  6
CONTINUOUS
 62
     5
100
AcDbVertex
100
AcDb2dVertex
 10
381.5994742431301
 20
939.5114086302038
 30
0.0
  0
VERTEX
  5
84
100
AcDbEntity
  8
PLAN01
  6
CONTINUOUS
 62
     5
100
AcDbVertex
100
AcDb2dVertex
 10
380.5778172030875
 20
939.3273835470848
 30
0.0
  0
VERTEX
  5
85
100
AcDbEntity
  8
PLAN01
  6
CONTINUOUS
 62
     5
100
AcDbVertex
100
AcDb2dVertex
 10
379.547090869594
 20
939.2123209349605
 30
0.0
  0
VERTEX
  5
86
100
AcDbEntity
  8
PLAN01
  6
CONTINUOUS
 62
     5
100
AcDbVertex
100
AcDb2dVertex
 10
378.5108527375514
 20
939.1606115892843
 30
0.0
  0
VERTEX
  5
87
100
AcDbEntity
  8
PLAN01
  6
CONTINUOUS
 62
     5
100
AcDbVertex
100
AcDb2dVertex
 10
377.4726603018283
 20
939.1666463055072
 30
0.0
  0
VERTEX
  5
88
100
AcDbEntity
  8
PLAN01
  6
CONTINUOUS
 62
     5
100
AcDbVertex
100
AcDb2dVertex
 10
376.43607105723
 20
939.2248158790827
 30
0.0
  0
VERTEX
  5
89
100
AcDbEntity
  8
PLAN01
  6
CONTINUOUS
 62
     5
100
AcDbVertex
100
AcDb2dVertex
 10
375.4046424986573
 20
939.329511105463
 30
0.0
  0
VERTEX
  5
8A
100
AcDbEntity
  8
PLAN01
  6
CONTINUOUS
 62
     5
100
AcDbVertex
100
AcDb2dVertex
 10
374.3819321209641
 20
939.4751227800989
 30
0.0
  0
SEQEND
  5
8B
100
AcDbEntity
  8
PLAN01
  6
CONTINUOUS
 62
     5
  0
POLYLINE
  5
8C
100
AcDbEntity
  8
PLAN01
  6
CONTINUOUS
 62
     5
100
AcDb2dPolyline
 66
     1
 10
0.0
 20
0.0
 30
0.0
  0
VERTEX
  5
8D
100
AcDbEntity
  8
PLAN01
  6
CONTINUOUS
 62
     5
100
AcDbVertex
100
AcDb2dVertex
 10
280.9926894085183
 20
925.2374503452912
 30
0.0
  0
VERTEX
  5
8E
100
AcDbEntity
  8
PLAN01
  6
CONTINUOUS
 62
     5
100
AcDbVertex
100
AcDb2dVertex
 10
281.1526557270723
 20
925.228246638936
 30
0.0
  0
VERTEX
  5
8F
100
AcDbEntity
  8
PLAN01
  6
CONTINUOUS
 62
     5
100
AcDbVertex
100
AcDb2dVertex
 10
281.3126571885056
 20
925.2196458022984
 30
0.0
  0
VERTEX
  5
90
100
AcDbEntity
  8
PLAN01
  6
CONTINUOUS
 62
     5
100
AcDbVertex
100
AcDb2dVertex
 10
281.4726863713016
 20
925.2118121304871
 30
0.0
  0
VERTEX
  5
91
100
AcDbEntity
  8
PLAN01
  6
CONTINUOUS
 62
     5
100
AcDbVertex
100
AcDb2dVertex
 10
281.6327358539762
 20
925.2049099186129
 30
0.0
  0
VERTEX
  5
92
100
AcDbEntity
  8
PLAN01
  6
CONTINUOUS
 62
     5
100
AcDbVertex
100
AcDb2dVertex
 10
281.7927982150769
 20
925.1991034617859
 30
0.0
  0
VERTEX
  5
93
100
AcDbEntity
  8
PLAN01
  6
CONTINUOUS
 62
     5
100
AcDbVertex
100
AcDb2dVertex
 10
281.9528660331034
 20
925.1945570551162
 30
0.0
  0
VERTEX
  5
94
100
AcDbEntity
  8
PLAN01
  6
CONTINUOUS
 62
     5
100
AcDbVertex
100
AcDb2dVertex
 10
282.1129318865875
 20
925.1914349937134
 30
0.0
  0
VERTEX
  5
95
100
AcDbEntity
  8
PLAN01
  6
CONTINUOUS
 62
     5
100
AcDbVertex
100
AcDb2dVertex
 10
282.2729883540446
 20
925.1899015726866
 30
0.0
  0
VERTEX
  5
96
100
AcDbEntity
  8
PLAN01
  6
CONTINUOUS
 62
     5
100
AcDbVertex
100
AcDb2dVertex
 10
282.4330280140065
 20
925.1901210871467
 30
0.0
  0
VERTEX
  5
97
100
AcDbEntity
  8
PLAN01
  6
CONTINUOUS
 62
     5
100
AcDbVertex
100
AcDb2dVertex
 10
282.5930434449732
 20
925.1922578322041
 30
0.0
  0
VERTEX
  5
98
100
AcDbEntity
  8
PLAN01
  6
CONTINUOUS
 62
     5
100
AcDbVertex
100
AcDb2dVertex
 10
282.7530272254759
 20
925.1964761029681
 30
0.0
  0
VERTEX
  5
99
100
AcDbEntity
  8
PLAN01
  6
CONTINUOUS
 62
     5
100
AcDbVertex
100
AcDb2dVertex
 10
282.9129719340627
 20
925.2029401945488
 30
0.0
  0
VERTEX
  5
9A
100
AcDbEntity
  8
PLAN01
  6
CONTINUOUS
 62
     5
100
AcDbVertex
100
AcDb2dVertex
 10
283.0728701492007
 20
925.2118144020561
 30
0.0
  0
VERTEX
  5
9B
100
AcDbEntity
  8
PLAN01
  6
CONTINUOUS
 62
     5
100
AcDbVertex
100
AcDb2dVertex
 10
283.2327144494707
 20
925.2232630206002
 30
0.0
  0
VERTEX
  5
9C
100
AcDbEntity
  8
PLAN01
  6
CONTINUOUS
 62
     5
100
AcDbVertex
100
AcDb2dVertex
 10
283.3924974133387
 20
925.2374503452912
 30
0.0
  0
VERTEX
  5
9D
100
AcDbEntity
  8
PLAN01
  6
CONTINUOUS
 62
     5
100
AcDbVertex
100
AcDb2dVertex
 10
283.6159120190101
 20
925.2588846097674
 30
0.0
  0
VERTEX
  5
9E
100
AcDbEntity
  8
PLAN01
  6
CONTINUOUS
 62
     5
100
AcDbVertex
100
AcDb2dVertex
 10
283.8393682149547
 20
925.2797269340709
 30
0.0
  0
VERTEX
  5
9F
100
AcDbEntity
  8
PLAN01
  6
CONTINUOUS
 62
     5
100
AcDbVertex
100
AcDb2dVertex
 10
284.0628473518142
 20
925.300277817085
 30
0.0
  0
VERTEX
  5
A0
100
AcDbEntity
  8
PLAN01
  6
CONTINUOUS
 62
     5
100
AcDbVertex
100
AcDb2dVertex
 10
284.2863307804091
 20
925.3208377576937
 30
0.0
  0
VERTEX
  5
A1
100
AcDbEntity
  8
PLAN01
  6
CONTINUOUS
 62
     5
100
AcDbVertex
100
AcDb2dVertex
 10
284.5097998513813
 20
925.3417072547801
 30
0.0
  0
VERTEX
  5
A2
100
AcDbEntity
  8
PLAN01
  6
CONTINUOUS
 62
     5
100
AcDbVertex
100
AcDb2dVertex
 10
284.733235915503
 20
925.3631868072282
 30
0.0
  0
VERTEX
  5
A3
100
AcDbEntity
  8
PLAN01
  6
CONTINUOUS
 62
     5
100
AcDbVertex
100
AcDb2dVertex
 10
284.9566203234321
 20
925.3855769139212
 30
0.0
  0
VERTEX
  5
A4
100
AcDbEntity
  8
PLAN01
  6
CONTINUOUS
 62
     5
100
AcDbVertex
100
AcDb2dVertex
 10
285.1799344259246
 20
925.4091780737415
 30
0.0
  0
VERTEX
  5
A5
100
AcDbEntity
  8
PLAN01
  6
CONTINUOUS
 62
     5
100
AcDbVertex
100
AcDb2dVertex
 10
285.4031595737032
 20
925.434290785574
 30
0.0
  0
VERTEX
  5
A6
100
AcDbEntity
  8
PLAN01
  6
CONTINUOUS
 62
     5
100
AcDbVertex
100
AcDb2dVertex
 10
285.6262771175073
 20
925.4612155483025
 30
0.0
  0
VERTEX
  5
A7
100
AcDbEntity
  8
PLAN01
  6
CONTINUOUS
 62
     5
100
AcDbVertex
100
AcDb2dVertex
 10
285.8492684080118
 20
925.490252860809
 30
0.0
  0
VERTEX
  5
A8
100
AcDbEntity
  8
PLAN01
  6
CONTINUOUS
 62
     5
100
AcDbVertex
100
AcDb2dVertex
 10
286.0721147959557
 20
925.5217032219784
 30
0.0
  0
VERTEX
  5
A9
100
AcDbEntity
  8
PLAN01
  6
CONTINUOUS
 62
     5
100
AcDbVertex
100
AcDb2dVertex
 10
286.294797632046
 20
925.5558671306941
 30
0.0
  0
VERTEX
  5
AA
100
AcDbEntity
  8
PLAN01
  6
CONTINUOUS
 62
     5
100
AcDbVertex
100
AcDb2dVertex
 10
286.517298267022
 20
925.5930450858377
 30
0.0
  0
VERTEX
  5
AB
100
AcDbEntity
  8
PLAN01
  6
CONTINUOUS
 62
     5
100
AcDbVertex
100
AcDb2dVertex
 10
286.7395980515906
 20
925.6335375862949
 30
0.0
  0
VERTEX
  5
AC
100
AcDbEntity
  8
PLAN01
  6
CONTINUOUS
 62
     5
100
AcDbVertex
100
AcDb2dVertex
 10
286.9636041600265
 20
925.6783037081978
 30
0.0
  0
VERTEX
  5
AD
100
AcDbEntity
  8
PLAN01
  6
CONTINUOUS
 62
     5
100
AcDbVertex
100
AcDb2dVertex
 10
287.1876340409487
 20
925.7279052695482
 30
0.0
  0
VERTEX
  5
AE
100
AcDbEntity
  8
PLAN01
  6
CONTINUOUS
 62
     5
100
AcDbVertex
100
AcDb2dVertex
 10
287.4113760618892
 20
925.7830150487711
 30
0.0
  0
VERTEX
  5
AF
100
AcDbEntity
  8
PLAN01
  6
CONTINUOUS
 62
     5
100
AcDbVertex
100
AcDb2dVertex
 10
287.6345185903484
 20
925.8443058242912
 30
0.0
  0
VERTEX
  5
B0
100
AcDbEntity
  8
PLAN01
  6
CONTINUOUS
 62
     5
100
AcDbVertex
100
AcDb2dVertex
 10
287.8567499938253
 20
925.9124503745329
 30
0.0
  0
VERTEX
  5
B1
100
AcDbEntity
  8
PLAN01
  6
CONTINUOUS
 62
     5
100
AcDbVertex
100
AcDb2dVertex
 10
288.0777586398361
 20
925.9881214779213
 30
0.0
  0
VERTEX
  5
B2
100
AcDbEntity
  8
PLAN01
  6
CONTINUOUS
 62
     5
100
AcDbVertex
100
AcDb2dVertex
 10
288.297232895864
 20
926.0719919128801
 30
0.0
  0
VERTEX
  5
B3
100
AcDbEntity
  8
PLAN01
  6
CONTINUOUS
 62
     5
100
AcDbVertex
100
AcDb2dVertex
 10
288.5148611293924
 20
926.1647344578337
 30
0.0
  0
VERTEX
  5
B4
100
AcDbEntity
  8
PLAN01
  6
CONTINUOUS
 62
     5
100
AcDbVertex
100
AcDb2dVertex
 10
288.7303317079701
 20
926.2670218912091
 30
0.0
  0
VERTEX
  5
B5
100
AcDbEntity
  8
PLAN01
  6
CONTINUOUS
 62
     5
100
AcDbVertex
100
AcDb2dVertex
 10
288.9433329991123
 20
926.3795269914284
 30
0.0
  0
VERTEX
  5
B6
100
AcDbEntity
  8
PLAN01
  6
CONTINUOUS
 62
     5
100
AcDbVertex
100
AcDb2dVertex
 10
289.1535533702703
 20
926.5029225369168
 30
0.0
  0
VERTEX
  5
B7
100
AcDbEntity
  8
PLAN01
  6
CONTINUOUS
 62
     5
100
AcDbVertex
100
AcDb2dVertex
 10
289.3606811889923
 20
926.6378813060995
 30
0.0
  0
VERTEX
  5
B8
100
AcDbEntity
  8
PLAN01
  6
CONTINUOUS
 62
     5
100
AcDbVertex
100
AcDb2dVertex
 10
289.5644048227456
 20
926.7850760774011
 30
0.0
  0
VERTEX
  5
B9
100
AcDbEntity
  8
PLAN01
  6
CONTINUOUS
 62
     5
100
AcDbVertex
100
AcDb2dVertex
 10
289.7644126390303
 20
926.9451796292454
 30
0.0
  0
VERTEX
  5
BA
100
AcDbEntity
  8
PLAN01
  6
CONTINUOUS
 62
     5
100
AcDbVertex
100
AcDb2dVertex
 10
289.9603930054098
 20
927.1188647400572
 30
0.0
  0
VERTEX
  5
BB
100
AcDbEntity
  8
PLAN01
  6
CONTINUOUS
 62
     5
100
AcDbVertex
100
AcDb2dVertex
 10
290.1779760290875
 20
927.3228073048967
 30
0.0
  0
VERTEX
  5
BC
100
AcDbEntity
  8
PLAN01
  6
CONTINUOUS
 62
     5
100
AcDbVertex
100
AcDb2dVertex
 10
290.3949432102038
 20
927.5283291117098
 30
0.0
  0
VERTEX
  5
BD
100
AcDbEntity
  8
PLAN01
  6
CONTINUOUS
 62
     5
100
AcDbVertex
100
AcDb2dVertex
 10
290.6113422698137
 20
927.7353065100514
 30
0.0
  0
VERTEX
  5
BE
100
AcDbEntity
  8
PLAN01
  6
CONTINUOUS
 62
     5
100
AcDbVertex
100
AcDb2dVertex
 10
290.8272209288916
 20
927.9436158494796
 30
0.0
  0
VERTEX
  5
BF
100
AcDbEntity
  8
PLAN01
  6
CONTINUOUS
 62
     5
100
AcDbVertex
100
AcDb2dVertex
 10
291.0426269085247
 20
928.1531334795506
 30
0.0
  0
VERTEX
  5
C0
100
AcDbEntity
  8
PLAN01
  6
CONTINUOUS
 62
     5
100
AcDbVertex
100
AcDb2dVertex
 10
291.2576079297201
 20
928.3637357498205
 30
0.0
  0
VERTEX
  5
C1
100
AcDbEntity
  8
PLAN01
  6
CONTINUOUS
 62
     5
100
AcDbVertex
100
AcDb2dVertex
 10
291.4722117134841
 20
928.5752990098472
 30
0.0
  0
VERTEX
  5
C2
100
AcDbEntity
  8
PLAN01
  6
CONTINUOUS
 62
     5
100
AcDbVertex
100
AcDb2dVertex
 10
291.6864859808073
 20
928.787699609186
 30
0.0
  0
VERTEX
  5
C3
100
AcDbEntity
  8
PLAN01
  6
CONTINUOUS
 62
     5
100
AcDbVertex
100
AcDb2dVertex
 10
291.9004784527935
 20
929.0008138973949
 30
0.0
  0
VERTEX
  5
C4
100
AcDbEntity
  8
PLAN01
  6
CONTINUOUS
 62
     5
100
AcDbVertex
100
AcDb2dVertex
 10
292.1142368504168
 20
929.2145182240298
 30
0.0
  0
VERTEX
  5
C5
100
AcDbEntity
  8
PLAN01
  6
CONTINUOUS
 62
     5
100
AcDbVertex
100
AcDb2dVertex
 10
292.3278088947326
 20
929.4286889386485
 30
0.0
  0
VERTEX
  5
C6
100
AcDbEntity
  8
PLAN01
  6
CONTINUOUS
 62
     5
100
AcDbVertex
100
AcDb2dVertex
 10
292.5412423067472
 20
929.6432023908057
 30
0.0
  0
VERTEX
  5
C7
100
AcDbEntity
  8
PLAN01
  6
CONTINUOUS
 62
     5
100
AcDbVertex
100
AcDb2dVertex
 10
292.7545848074672
 20
929.8579349300599
 30
0.0
  0
VERTEX
  5
C8
100
AcDbEntity
  8
PLAN01
  6
CONTINUOUS
 62
     5
100
AcDbVertex
100
AcDb2dVertex
 10
292.9678841179483
 20
930.0727629059675
 30
0.0
  0
VERTEX
  5
C9
100
AcDbEntity
  8
PLAN01
  6
CONTINUOUS
 62
     5
100
AcDbVertex
100
AcDb2dVertex
 10
293.1811879592289
 20
930.2875626680839
 30
0.0
  0
VERTEX
  5
CA
100
AcDbEntity
  8
PLAN01
  6
CONTINUOUS
 62
     5
100
AcDbVertex
100
AcDb2dVertex
 10
293.3166522708859
 20
930.4244153618983
 30
0.0
  0
VERTEX
  5
CB
100
AcDbEntity
  8
PLAN01
  6
CONTINUOUS
 62
     5
100
AcDbVertex
100
AcDb2dVertex
 10
293.4518559384467
 20
930.5618945506841
 30
0.0
  0
VERTEX
  5
CC
100
AcDbEntity
  8
PLAN01
  6
CONTINUOUS
 62
     5
100
AcDbVertex
100
AcDb2dVertex
 10
293.5868347727408
 20
930.6999142688054
 30
0.0
  0
VERTEX
  5
CD
100
AcDbEntity
  8
PLAN01
  6
CONTINUOUS
 62
     5
100
AcDbVertex
100
AcDb2dVertex
 10
293.7216245845165
 20
930.8383885506275
 30
0.0
  0
VERTEX
  5
CE
100
AcDbEntity
  8
PLAN01
  6
CONTINUOUS
 62
     5
100
AcDbVertex
100
AcDb2dVertex
 10
293.8562611845549
 20
930.9772314305156
 30
0.0
  0
VERTEX
  5
CF
100
AcDbEntity
  8
PLAN01
  6
CONTINUOUS
 62
     5
100
AcDbVertex
100
AcDb2dVertex
 10
293.9907803836532
 20
931.116356942835
 30
0.0
  0
VERTEX
  5
D0
100
AcDbEntity
  8
PLAN01
  6
CONTINUOUS
 62
     5
100
AcDbVertex
100
AcDb2dVertex
 10
294.1252179925594
 20
931.2556791219501
 30
0.0
  0
VERTEX
  5
D1
100
AcDbEntity
  8
PLAN01
  6
CONTINUOUS
 62
     5
100
AcDbVertex
100
AcDb2dVertex
 10
294.2596098220385
 20
931.395112002227
 30
0.0
  0
VERTEX
  5
D2
100
AcDbEntity
  8
PLAN01
  6
CONTINUOUS
 62
     5
100
AcDbVertex
100
AcDb2dVertex
 10
294.3939916828877
 20
931.5345696180299
 30
0.0
  0
VERTEX
  5
D3
100
AcDbEntity
  8
PLAN01
  6
CONTINUOUS
 62
     5
100
AcDbVertex
100
AcDb2dVertex
 10
294.5283993859358
 20
931.6739660037246
 30
0.0
  0
VERTEX
  5
D4
100
AcDbEntity
  8
PLAN01
  6
CONTINUOUS
 62
     5
100
AcDbVertex
100
AcDb2dVertex
 10
294.6628687418833
 20
931.813215193676
 30
0.0
  0
VERTEX
  5
D5
100
AcDbEntity
  8
PLAN01
  6
CONTINUOUS
 62
     5
100
AcDbVertex
100
AcDb2dVertex
 10
294.7974355615752
 20
931.9522312222494
 30
0.0
  0
VERTEX
  5
D6
100
AcDbEntity
  8
PLAN01
  6
CONTINUOUS
 62
     5
100
AcDbVertex
100
AcDb2dVertex
 10
294.9321356557285
 20
932.0909281238103
 30
0.0
  0
VERTEX
  5
D7
100
AcDbEntity
  8
PLAN01
  6
CONTINUOUS
 62
     5
100
AcDbVertex
100
AcDb2dVertex
 10
295.0670048351396
 20
932.2292199327224
 30
0.0
  0
VERTEX
  5
D8
100
AcDbEntity
  8
PLAN01
  6
CONTINUOUS
 62
     5
100
AcDbVertex
100
AcDb2dVertex
 10
295.2020789106219
 20
932.3670206833515
 30
0.0
  0
VERTEX
  5
D9
100
AcDbEntity
  8
PLAN01
  6
CONTINUOUS
 62
     5
100
AcDbVertex
100
AcDb2dVertex
 10
296.0479061965447
 20
933.1811915474103
 30
0.0
  0
VERTEX
  5
DA
100
AcDbEntity
  8
PLAN01
  6
CONTINUOUS
 62
     5
100
AcDbVertex
100
AcDb2dVertex
 10
296.9144773000874
 20
933.9281056336982
 30
0.0
  0
VERTEX
  5
DB
100
AcDbEntity
  8
PLAN01
  6
CONTINUOUS
 62
     5
100
AcDbVertex
100
AcDb2dVertex
 10
297.8000726029211
 20
934.6123299550791
 30
0.0
  0
VERTEX
  5
DC
100
AcDbEntity
  8
PLAN01
  6
CONTINUOUS
 62
     5
100
AcDbVertex
100
AcDb2dVertex
 10
298.7029724868282
 20
935.2384315244187
 30
0.0
  0
VERTEX
  5
DD
100
AcDbEntity
  8
PLAN01
  6
CONTINUOUS
 62
     5
100
AcDbVertex
100
AcDb2dVertex
 10
299.621457333463
 20
935.8109773545804
 30
0.0
  0
VERTEX
  5
DE
100
AcDbEntity
  8
PLAN01
  6
CONTINUOUS
 62
     5
100
AcDbVertex
100
AcDb2dVertex
 10
300.5538075245771
 20
936.334534458429
 30
0.0
  0
VERTEX
  5
DF
100
AcDbEntity
  8
PLAN01
  6
CONTINUOUS
 62
     5
100
AcDbVertex
100
AcDb2dVertex
 10
301.4983034418237
 20
936.8136698488303
 30
0.0
  0
VERTEX
  5
E0
100
AcDbEntity
  8
PLAN01
  6
CONTINUOUS
 62
     5
100
AcDbVertex
100
AcDb2dVertex
 10
302.453225466987
 20
937.252950538647
 30
0.0
  0
VERTEX
  5
E1
100
AcDbEntity
  8
PLAN01
  6
CONTINUOUS
 62
     5
100
AcDbVertex
100
AcDb2dVertex
 10
303.4168539817855
 20
937.6569435407461
 30
0.0
  0
VERTEX
  5
E2
100
AcDbEntity
  8
PLAN01
  6
CONTINUOUS
 62
     5
100
AcDbVertex
100
AcDb2dVertex
 10
304.3874693678733
 20
938.0302158679906
 30
0.0
  0
VERTEX
  5
E3
100
AcDbEntity
  8
PLAN01
  6
CONTINUOUS
 62
     5
100
AcDbVertex
100
AcDb2dVertex
 10
305.363352007034
 20
938.3773345332452
 30
0.0
  0
VERTEX
  5
E4
100
AcDbEntity
  8
PLAN01
  6
CONTINUOUS
 62
     5
100
AcDbVertex
100
AcDb2dVertex
 10
306.342782280921
 20
938.7028665493756
 30
0.0
  0
VERTEX
  5
E5
100
AcDbEntity
  8
PLAN01
  6
CONTINUOUS
 62
     5
100
AcDbVertex
100
AcDb2dVertex
 10
307.3240405713022
 20
939.011378929246
 30
0.0
  0
VERTEX
  5
E6
100
AcDbEntity
  8
PLAN01
  6
CONTINUOUS
 62
     5
100
AcDbVertex
100
AcDb2dVertex
 10
308.3054072598476
 20
939.3074386857197
 30
0.0
  0
VERTEX
  5
E7
100
AcDbEntity
  8
PLAN01
  6
CONTINUOUS
 62
     5
100
AcDbVertex
100
AcDb2dVertex
 10
309.2851627282925
 20
939.595612831663
 30
0.0
  0
SEQEND
  5
E8
100
AcDbEntity
  8
PLAN01
  6
CONTINUOUS
 62
     5
  0
LINE
  5
E9
100
AcDbEntity
  8
PLAN01
  6
CONTINUOUS
 62
     5
100
AcDbLine
 10
202.4881403014761
 20
925.5924555834846
 30
0.0
 11
281.0683611678342
 21
925.2420075368931
 31
0.0
  0
POLYLINE
  5
EA
100
AcDbEntity
  8
PLAN01
  6
CONTINUOUS
 62
     5
100
AcDb2dPolyline
 66
     1
 10
0.0
 20
0.0
 30
0.0
  0
VERTEX
  5
EB
100
AcDbEntity
  8
PLAN01
  6
CONTINUOUS
 62
     5
100
AcDbVertex
100
AcDb2dVertex
 10
309.186594574644
 20
939.549718821248
 30
0.0
  0
VERTEX
  5
EC
100
AcDbEntity
  8
PLAN01
  6
CONTINUOUS
 62
     5
100
AcDbVertex
100
AcDb2dVertex
 10
309.6325907100392
 20
939.6640091142714
 30
0.0
  0
VERTEX
  5
ED
100
AcDbEntity
  8
PLAN01
  6
CONTINUOUS
 62
     5
100
AcDbVertex
100
AcDb2dVertex
 10
310.0791551797413
 20
939.7724799275691
 30
0.0
  0
VERTEX
  5
EE
100
AcDbEntity
  8
PLAN01
  6
CONTINUOUS
 62
     5
100
AcDbVertex
100
AcDb2dVertex
 10
310.5267606907369
 20
939.8694881477219
 30
0.0
  0
VERTEX
  5
EF
100
AcDbEntity
  8
PLAN01
  6
CONTINUOUS
 62
     5
100
AcDbVertex
100
AcDb2dVertex
 10
310.6646484406553
 20
939.8970729734994
 30
0.0
  0
VERTEX
  5
F0
100
AcDbEntity
  8
PLAN01
  6
CONTINUOUS
 62
     5
100
AcDbVertex
100
AcDb2dVertex
 10
310.8025245270339
 20
939.9248037465277
 30
0.0
  0
VERTEX
  5
F1
100
AcDbEntity
  8
PLAN01
  6
CONTINUOUS
 62
     5
100
AcDbVertex
100
AcDb2dVertex
 10
310.940392083215
 20
939.9526409836047
 30
0.0
  0
VERTEX
  5
F2
100
AcDbEntity
  8
PLAN01
  6
CONTINUOUS
 62
     5
100
AcDbVertex
100
AcDb2dVertex
 10
311.0782542425886
 20
939.9805452015284
 30
0.0
  0
VERTEX
  5
F3
100
AcDbEntity
  8
PLAN01
  6
CONTINUOUS
 62
     5
100
AcDbVertex
100
AcDb2dVertex
 10
311.2161141385767
 20
940.0084769170971
 30
0.0
  0
VERTEX
  5
F4
100
AcDbEntity
  8
PLAN01
  6
CONTINUOUS
 62
     5
100
AcDbVertex
100
AcDb2dVertex
 10
311.3539749045377
 20
940.0363966471097
 30
0.0
  0
VERTEX
  5
F5
100
AcDbEntity
  8
PLAN01
  6
CONTINUOUS
 62
     5
100
AcDbVertex
100
AcDb2dVertex
 10
311.4918396738612
 20
940.0642649083643
 30
0.0
  0
VERTEX
  5
F6
100
AcDbEntity
  8
PLAN01
  6
CONTINUOUS
 62
     5
100
AcDbVertex
100
AcDb2dVertex
 10
311.6297115799378
 20
940.0920422176577
 30
0.0
  0
VERTEX
  5
F7
100
AcDbEntity
  8
PLAN01
  6
CONTINUOUS
 62
     5
100
AcDbVertex
100
AcDb2dVertex
 10
311.7675937561895
 20
940.1196890917914
 30
0.0
  0
VERTEX
  5
F8
100
AcDbEntity
  8
PLAN01
  6
CONTINUOUS
 62
     5
100
AcDbVertex
100
AcDb2dVertex
 10
311.9054893359907
 20
940.1471660475605
 30
0.0
  0
VERTEX
  5
F9
100
AcDbEntity
  8
PLAN01
  6
CONTINUOUS
 62
     5
100
AcDbVertex
100
AcDb2dVertex
 10
312.043401452715
 20
940.1744336017655
 30
0.0
  0
VERTEX
  5
FA
100
AcDbEntity
  8
PLAN01
  6
CONTINUOUS
 62
     5
100
AcDbVertex
100
AcDb2dVertex
 10
312.1813332398009
 20
940.2014522712033
 30
0.0
  0
VERTEX
  5
FB
100
AcDbEntity
  8
PLAN01
  6
CONTINUOUS
 62
     5
100
AcDbVertex
100
AcDb2dVertex
 10
312.3192878305744
 20
940.2281825726726
 30
0.0
  0
VERTEX
  5
FC
100
AcDbEntity
  8
PLAN01
  6
CONTINUOUS
 62
     5
100
AcDbVertex
100
AcDb2dVertex
 10
312.4572683584413
 20
940.2545850229733
 30
0.0
  0
VERTEX
  5
FD
100
AcDbEntity
  8
PLAN01
  6
CONTINUOUS
 62
     5
100
AcDbVertex
100
AcDb2dVertex
 10
312.5952779568567
 20
940.280620138901
 30
0.0
  0
VERTEX
  5
FE
100
AcDbEntity
  8
PLAN01
  6
CONTINUOUS
 62
     5
100
AcDbVertex
100
AcDb2dVertex
 10
312.7369189891703
 20
940.3070063008467
 30
0.0
  0
VERTEX
  5
FF
100
AcDbEntity
  8
PLAN01
  6
CONTINUOUS
 62
     5
100
AcDbVertex
100
AcDb2dVertex
 10
312.8785797555239
 20
940.3331334894794
 30
0.0
  0
VERTEX
  5
100
100
AcDbEntity
  8
PLAN01
  6
CONTINUOUS
 62
     5
100
AcDbVertex
100
AcDb2dVertex
 10
313.0202604708541
 20
940.3589947826608
 30
0.0
  0
VERTEX
  5
101
100
AcDbEntity
  8
PLAN01
  6
CONTINUOUS
 62
     5
100
AcDbVertex
100
AcDb2dVertex
 10
313.1619613500644
 20
940.384583258254
 30
0.0
  0
VERTEX
  5
102
100
AcDbEntity
  8
PLAN01
  6
CONTINUOUS
 62
     5
100
AcDbVertex
100
AcDb2dVertex
 10
313.3036826081564
 20
940.4098919941226
 30
0.0
  0
VERTEX
  5
103
100
AcDbEntity
  8
PLAN01
  6
CONTINUOUS
 62
     5
100
AcDbVertex
100
AcDb2dVertex
 10
313.4454244600498
 20
940.4349140681283
 30
0.0
  0
VERTEX
  5
104
100
AcDbEntity
  8
PLAN01
  6
CONTINUOUS
 62
     5
100
AcDbVertex
100
AcDb2dVertex
 10
313.5871871206972
 20
940.4596425581338
 30
0.0
  0
VERTEX
  5
105
100
AcDbEntity
  8
PLAN01
  6
CONTINUOUS
 62
     5
100
AcDbVertex
100
AcDb2dVertex
 10
313.7289708050674
 20
940.4840705420028
 30
0.0
  0
VERTEX
  5
106
100
AcDbEntity
  8
PLAN01
  6
CONTINUOUS
 62
     5
100
AcDbVertex
100
AcDb2dVertex
 10
313.8707757280642
 20
940.508191097598
 30
0.0
  0
VERTEX
  5
107
100
AcDbEntity
  8
PLAN01
  6
CONTINUOUS
 62
     5
100
AcDbVertex
100
AcDb2dVertex
 10
314.0126021046887
 20
940.5319973027811
 30
0.0
  0
VERTEX
  5
108
100
AcDbEntity
  8
PLAN01
  6
CONTINUOUS
 62
     5
100
AcDbVertex
100
AcDb2dVertex
 10
314.1544501498449
 20
940.555482235416
 30
0.0
  0
VERTEX
  5
109
100
AcDbEntity
  8
PLAN01
  6
CONTINUOUS
 62
     5
100
AcDbVertex
100
AcDb2dVertex
 10
314.2963200785175
 20
940.5786389733655
 30
0.0
  0
VERTEX
  5
10A
100
AcDbEntity
  8
PLAN01
  6
CONTINUOUS
 62
     5
100
AcDbVertex
100
AcDb2dVertex
 10
314.4382121056266
 20
940.6014605944925
 30
0.0
  0
VERTEX
  5
10B
100
AcDbEntity
  8
PLAN01
  6
CONTINUOUS
 62
     5
100
AcDbVertex
100
AcDb2dVertex
 10
314.5801264461414
 20
940.6239401766587
 30
0.0
  0
VERTEX
  5
10C
100
AcDbEntity
  8
PLAN01
  6
CONTINUOUS
 62
     5
100
AcDbVertex
100
AcDb2dVertex
 10
314.7220633149975
 20
940.6460707977275
 30
0.0
  0
VERTEX
  5
10D
100
AcDbEntity
  8
PLAN01
  6
CONTINUOUS
 62
     5
100
AcDbVertex
100
AcDb2dVertex
 10
314.9004440406354
 20
940.6732331817876
 30
0.0
  0
VERTEX
  5
10E
100
AcDbEntity
  8
PLAN01
  6
CONTINUOUS
 62
     5
100
AcDbVertex
100
AcDb2dVertex
 10
315.0788760183718
 20
940.6995526292623
 30
0.0
  0
VERTEX
  5
10F
100
AcDbEntity
  8
PLAN01
  6
CONTINUOUS
 62
     5
100
AcDbVertex
100
AcDb2dVertex
 10
315.2573575776521
 20
940.7250309904961
 30
0.0
  0
VERTEX
  5
110
100
AcDbEntity
  8
PLAN01
  6
CONTINUOUS
 62
     5
100
AcDbVertex
100
AcDb2dVertex
 10
315.4358870477925
 20
940.7496701158347
 30
0.0
  0
VERTEX
  5
111
100
AcDbEntity
  8
PLAN01
  6
CONTINUOUS
 62
     5
100
AcDbVertex
100
AcDb2dVertex
 10
315.6144627582385
 20
940.7734718556234
 30
0.0
  0
VERTEX
  5
112
100
AcDbEntity
  8
PLAN01
  6
CONTINUOUS
 62
     5
100
AcDbVertex
100
AcDb2dVertex
 10
315.7930830384032
 20
940.7964380602075
 30
0.0
  0
VERTEX
  5
113
100
AcDbEntity
  8
PLAN01
  6
CONTINUOUS
 62
     5
100
AcDbVertex
100
AcDb2dVertex
 10
315.9717462176344
 20
940.8185705799304
 30
0.0
  0
VERTEX
  5
114
100
AcDbEntity
  8
PLAN01
  6
CONTINUOUS
 62
     5
100
AcDbVertex
100
AcDb2dVertex
 10
316.1504506253785
 20
940.8398712651393
 30
0.0
  0
VERTEX
  5
115
100
AcDbEntity
  8
PLAN01
  6
CONTINUOUS
 62
     5
100
AcDbVertex
100
AcDb2dVertex
 10
316.3291945910323
 20
940.8603419661799
 30
0.0
  0
VERTEX
  5
116
100
AcDbEntity
  8
PLAN01
  6
CONTINUOUS
 62
     5
100
AcDbVertex
100
AcDb2dVertex
 10
316.5079764439921
 20
940.8799845333961
 30
0.0
  0
VERTEX
  5
117
100
AcDbEntity
  8
PLAN01
  6
CONTINUOUS
 62
     5
100
AcDbVertex
100
AcDb2dVertex
 10
316.6867945136231
 20
940.8988008171334
 30
0.0
  0
VERTEX
  5
118
100
AcDbEntity
  8
PLAN01
  6
CONTINUOUS
 62
     5
100
AcDbVertex
100
AcDb2dVertex
 10
316.8656471293867
 20
940.9167926677369
 30
0.0
  0
VERTEX
  5
119
100
AcDbEntity
  8
PLAN01
  6
CONTINUOUS
 62
     5
100
AcDbVertex
100
AcDb2dVertex
 10
317.0445326206149
 20
940.9339619355524
 30
0.0
  0
VERTEX
  5
11A
100
AcDbEntity
  8
PLAN01
  6
CONTINUOUS
 62
     5
100
AcDbVertex
100
AcDb2dVertex
 10
317.2234493167537
 20
940.9503104709257
 30
0.0
  0
VERTEX
  5
11B
100
AcDbEntity
  8
PLAN01
  6
CONTINUOUS
 62
     5
100
AcDbVertex
100
AcDb2dVertex
 10
317.4023955471672
 20
940.9658401242005
 30
0.0
  0
VERTEX
  5
11C
100
AcDbEntity
  8
PLAN01
  6
CONTINUOUS
 62
     5
100
AcDbVertex
100
AcDb2dVertex
 10
317.6392293008031
 20
940.9852480767245
 30
0.0
  0
VERTEX
  5
11D
100
AcDbEntity
  8
PLAN01
  6
CONTINUOUS
 62
     5
100
AcDbVertex
100
AcDb2dVertex
 10
317.8760957074431
 20
941.0035342022768
 30
0.0
  0
VERTEX
  5
11E
100
AcDbEntity
  8
PLAN01
  6
CONTINUOUS
 62
     5
100
AcDbVertex
100
AcDb2dVertex
 10
318.1129912917272
 20
941.0208195540588
 30
0.0
  0
VERTEX
  5
11F
100
AcDbEntity
  8
PLAN01
  6
CONTINUOUS
 62
     5
100
AcDbVertex
100
AcDb2dVertex
 10
318.3499125783937
 20
941.0372251852681
 30
0.0
  0
VERTEX
  5
120
100
AcDbEntity
  8
PLAN01
  6
CONTINUOUS
 62
     5
100
AcDbVertex
100
AcDb2dVertex
 10
318.5868560921802
 20
941.0528721491049
 30
0.0
  0
VERTEX
  5
121
100
AcDbEntity
  8
PLAN01
  6
CONTINUOUS
 62
     5
100
AcDbVertex
100
AcDb2dVertex
 10
318.8238183578083
 20
941.0678814987706
 30
0.0
  0
VERTEX
  5
122
100
AcDbEntity
  8
PLAN01
  6
CONTINUOUS
 62
     5
100
AcDbVertex
100
AcDb2dVertex
 10
319.0607958999836
 20
941.0823742874631
 30
0.0
  0
VERTEX
  5
123
100
AcDbEntity
  8
PLAN01
  6
CONTINUOUS
 62
     5
100
AcDbVertex
100
AcDb2dVertex
 10
319.2977852433953
 20
941.0964715683824
 30
0.0
  0
VERTEX
  5
124
100
AcDbEntity
  8
PLAN01
  6
CONTINUOUS
 62
     5
100
AcDbVertex
100
AcDb2dVertex
 10
319.5347829127978
 20
941.1102943947296
 30
0.0
  0
VERTEX
  5
125
100
AcDbEntity
  8
PLAN01
  6
CONTINUOUS
 62
     5
100
AcDbVertex
100
AcDb2dVertex
 10
319.7717854329445
 20
941.1239638197029
 30
0.0
  0
VERTEX
  5
126
100
AcDbEntity
  8
PLAN01
  6
CONTINUOUS
 62
     5
100
AcDbVertex
100
AcDb2dVertex
 10
320.0087893285088
 20
941.1376008965042
 30
0.0
  0
VERTEX
  5
127
100
AcDbEntity
  8
PLAN01
  6
CONTINUOUS
 62
     5
100
AcDbVertex
100
AcDb2dVertex
 10
320.2457911241965
 20
941.1513266783304
 30
0.0
  0
VERTEX
  5
128
100
AcDbEntity
  8
PLAN01
  6
CONTINUOUS
 62
     5
100
AcDbVertex
100
AcDb2dVertex
 10
320.4827873447774
 20
941.1652622183837
 30
0.0
  0
VERTEX
  5
129
100
AcDbEntity
  8
PLAN01
  6
CONTINUOUS
 62
     5
100
AcDbVertex
100
AcDb2dVertex
 10
320.7197745149727
 20
941.1795285698621
 30
0.0
  0
VERTEX
  5
12A
100
AcDbEntity
  8
PLAN01
  6
CONTINUOUS
 62
     5
100
AcDbVertex
100
AcDb2dVertex
 10
320.9567491594082
 20
941.1942467859669
 30
0.0
  0
VERTEX
  5
12B
100
AcDbEntity
  8
PLAN01
  6
CONTINUOUS
 62
     5
100
AcDbVertex
100
AcDb2dVertex
 10
321.3158955072498
 20
941.2159381004373
 30
0.0
  0
VERTEX
  5
12C
100
AcDbEntity
  8
PLAN01
  6
CONTINUOUS
 62
     5
100
AcDbVertex
100
AcDb2dVertex
 10
321.6750807314739
 20
941.2356840562139
 30
0.0
  0
VERTEX
  5
12D
100
AcDbEntity
  8
PLAN01
  6
CONTINUOUS
 62
     5
100
AcDbVertex
100
AcDb2dVertex
 10
322.0343015821115
 20
941.2536200780762
 30
0.0
  0
VERTEX
  5
12E
100
AcDbEntity
  8
PLAN01
  6
CONTINUOUS
 62
     5
100
AcDbVertex
100
AcDb2dVertex
 10
322.3935548091934
 20
941.2698815908042
 30
0.0
  0
VERTEX
  5
12F
100
AcDbEntity
  8
PLAN01
  6
CONTINUOUS
 62
     5
100
AcDbVertex
100
AcDb2dVertex
 10
322.752837162799
 20
941.2846040191809
 30
0.0
  0
VERTEX
  5
130
100
AcDbEntity
  8
PLAN01
  6
CONTINUOUS
 62
     5
100
AcDbVertex
100
AcDb2dVertex
 10
323.1121453929914
 20
941.2979227879862
 30
0.0
  0
VERTEX
  5
131
100
AcDbEntity
  8
PLAN01
  6
CONTINUOUS
 62
     5
100
AcDbVertex
100
AcDb2dVertex
 10
323.4714762498022
 20
941.3099733220013
 30
0.0
  0
VERTEX
  5
132
100
AcDbEntity
  8
PLAN01
  6
CONTINUOUS
 62
     5
100
AcDbVertex
100
AcDb2dVertex
 10
323.8308264832943
 20
941.320891046006
 30
0.0
  0
VERTEX
  5
133
100
AcDbEntity
  8
PLAN01
  6
CONTINUOUS
 62
     5
100
AcDbVertex
100
AcDb2dVertex
 10
324.1901928435312
 20
941.3308113847834
 30
0.0
  0
VERTEX
  5
134
100
AcDbEntity
  8
PLAN01
  6
CONTINUOUS
 62
     5
100
AcDbVertex
100
AcDb2dVertex
 10
324.5495720805926
 20
941.3398697631127
 30
0.0
  0
VERTEX
  5
135
100
AcDbEntity
  8
PLAN01
  6
CONTINUOUS
 62
     5
100
AcDbVertex
100
AcDb2dVertex
 10
324.9089609444926
 20
941.3482016057754
 30
0.0
  0
VERTEX
  5
136
100
AcDbEntity
  8
PLAN01
  6
CONTINUOUS
 62
     5
100
AcDbVertex
100
AcDb2dVertex
 10
325.2683561853114
 20
941.3559423375529
 30
0.0
  0
VERTEX
  5
137
100
AcDbEntity
  8
PLAN01
  6
CONTINUOUS
 62
     5
100
AcDbVertex
100
AcDb2dVertex
 10
325.6277545530794
 20
941.3632273832257
 30
0.0
  0
VERTEX
  5
138
100
AcDbEntity
  8
PLAN01
  6
CONTINUOUS
 62
     5
100
AcDbVertex
100
AcDb2dVertex
 10
325.9871527978765
 20
941.3701921675739
 30
0.0
  0
VERTEX
  5
139
100
AcDbEntity
  8
PLAN01
  6
CONTINUOUS
 62
     5
100
AcDbVertex
100
AcDb2dVertex
 10
326.3465476697335
 20
941.3769721153801
 30
0.0
  0
SEQEND
  5
13A
100
AcDbEntity
  8
PLAN01
  6
CONTINUOUS
 62
     5
  0
POLYLINE
  5
13B
100
AcDbEntity
  8
PLAN01
  6
CONTINUOUS
 62
     5
100
AcDb2dPolyline
 66
     1
 10
0.0
 20
0.0
 30
0.0
  0
VERTEX
  5
13C
100
AcDbEntity
  8
PLAN01
  6
CONTINUOUS
 62
     5
100
AcDbVertex
100
AcDb2dVertex
 10
326.3960703142579
 20
941.3670801921387
 30
0.0
  0
VERTEX
  5
13D
100
AcDbEntity
  8
PLAN01
  6
CONTINUOUS
 62
     5
100
AcDbVertex
100
AcDb2dVertex
 10
326.6625437320635
 20
941.3670801921387
 30
0.0
  0
VERTEX
  5
13E
100
AcDbEntity
  8
PLAN01
  6
CONTINUOUS
 62
     5
100
AcDbVertex
100
AcDb2dVertex
 10
326.9290171498686
 20
941.3670801921396
 30
0.0
  0
VERTEX
  5
13F
100
AcDbEntity
  8
PLAN01
  6
CONTINUOUS
 62
     5
100
AcDbVertex
100
AcDb2dVertex
 10
327.1954905676416
 20
941.3670801921387
 30
0.0
  0
VERTEX
  5
140
100
AcDbEntity
  8
PLAN01
  6
CONTINUOUS
 62
     5
100
AcDbVertex
100
AcDb2dVertex
 10
327.4619639854471
 20
941.3670801921393
 30
0.0
  0
VERTEX
  5
141
100
AcDbEntity
  8
PLAN01
  6
CONTINUOUS
 62
     5
100
AcDbVertex
100
AcDb2dVertex
 10
327.7284374032524
 20
941.3670801921387
 30
0.0
  0
VERTEX
  5
142
100
AcDbEntity
  8
PLAN01
  6
CONTINUOUS
 62
     5
100
AcDbVertex
100
AcDb2dVertex
 10
327.9949108210575
 20
941.3670801921387
 30
0.0
  0
VERTEX
  5
143
100
AcDbEntity
  8
PLAN01
  6
CONTINUOUS
 62
     5
100
AcDbVertex
100
AcDb2dVertex
 10
328.2613842388629
 20
941.3670801921393
 30
0.0
  0
VERTEX
  5
144
100
AcDbEntity
  8
PLAN01
  6
CONTINUOUS
 62
     5
100
AcDbVertex
100
AcDb2dVertex
 10
328.5278576566361
 20
941.3670801921387
 30
0.0
  0
VERTEX
  5
145
100
AcDbEntity
  8
PLAN01
  6
CONTINUOUS
 62
     5
100
AcDbVertex
100
AcDb2dVertex
 10
328.7943310744251
 20
941.3670801921387
 30
0.0
  0
VERTEX
  5
146
100
AcDbEntity
  8
PLAN01
  6
CONTINUOUS
 62
     5
100
AcDbVertex
100
AcDb2dVertex
 10
329.0608044922305
 20
941.3670801921387
 30
0.0
  0
VERTEX
  5
147
100
AcDbEntity
  8
PLAN01
  6
CONTINUOUS
 62
     5
100
AcDbVertex
100
AcDb2dVertex
 10
329.3272779100198
 20
941.3670801921387
 30
0.0
  0
VERTEX
  5
148
100
AcDbEntity
  8
PLAN01
  6
CONTINUOUS
 62
     5
100
AcDbVertex
100
AcDb2dVertex
 10
329.5937513278089
 20
941.3670801921387
 30
0.0
  0
VERTEX
  5
149
100
AcDbEntity
  8
PLAN01
  6
CONTINUOUS
 62
     5
100
AcDbVertex
100
AcDb2dVertex
 10
329.8602247456141
 20
941.3670801921387
 30
0.0
  0
VERTEX
  5
14A
100
AcDbEntity
  8
PLAN01
  6
CONTINUOUS
 62
     5
100
AcDbVertex
100
AcDb2dVertex
 10
330.1266981634357
 20
941.3670801921387
 30
0.0
  0
VERTEX
  5
14B
100
AcDbEntity
  8
PLAN01
  6
CONTINUOUS
 62
     5
100
AcDbVertex
100
AcDb2dVertex
 10
330.3931715812087
 20
941.3670801921387
 30
0.0
  0
VERTEX
  5
14C
100
AcDbEntity
  8
PLAN01
  6
CONTINUOUS
 62
     5
100
AcDbVertex
100
AcDb2dVertex
 10
330.6254062081815
 20
941.3670801921387
 30
0.0
  0
VERTEX
  5
14D
100
AcDbEntity
  8
PLAN01
  6
CONTINUOUS
 62
     5
100
AcDbVertex
100
AcDb2dVertex
 10
330.8670427172175
 20
941.3670801921396
 30
0.0
  0
VERTEX
  5
14E
100
AcDbEntity
  8
PLAN01
  6
CONTINUOUS
 62
     5
100
AcDbVertex
100
AcDb2dVertex
 10
331.1143138655156
 20
941.3670801921387
 30
0.0
  0
VERTEX
  5
14F
100
AcDbEntity
  8
PLAN01
  6
CONTINUOUS
 62
     5
100
AcDbVertex
100
AcDb2dVertex
 10
331.3634524103062
 20
941.3670801921393
 30
0.0
  0
VERTEX
  5
150
100
AcDbEntity
  8
PLAN01
  6
CONTINUOUS
 62
     5
100
AcDbVertex
100
AcDb2dVertex
 10
331.6106911088858
 20
941.3670801921387
 30
0.0
  0
VERTEX
  5
151
100
AcDbEntity
  8
PLAN01
  6
CONTINUOUS
 62
     5
100
AcDbVertex
100
AcDb2dVertex
 10
331.8522627184516
 20
941.3670801921387
 30
0.0
  0
VERTEX
  5
152
100
AcDbEntity
  8
PLAN01
  6
CONTINUOUS
 62
     5
100
AcDbVertex
100
AcDb2dVertex
 10
332.084399996268
 20
941.3670801921393
 30
0.0
  0
VERTEX
  5
153
100
AcDbEntity
  8
PLAN01
  6
CONTINUOUS
 62
     5
100
AcDbVertex
100
AcDb2dVertex
 10
332.3033356995334
 20
941.3670801921387
 30
0.0
  0
VERTEX
  5
154
100
AcDbEntity
  8
PLAN01
  6
CONTINUOUS
 62
     5
100
AcDbVertex
100
AcDb2dVertex
 10
332.5053025855753
 20
941.3670801921387
 30
0.0
  0
VERTEX
  5
155
100
AcDbEntity
  8
PLAN01
  6
CONTINUOUS
 62
     5
100
AcDbVertex
100
AcDb2dVertex
 10
332.6865334115602
 20
941.3670801921387
 30
0.0
  0
VERTEX
  5
156
100
AcDbEntity
  8
PLAN01
  6
CONTINUOUS
 62
     5
100
AcDbVertex
100
AcDb2dVertex
 10
332.843260934784
 20
941.3670801921387
 30
0.0
  0
VERTEX
  5
157
100
AcDbEntity
  8
PLAN01
  6
CONTINUOUS
 62
     5
100
AcDbVertex
100
AcDb2dVertex
 10
332.9717179124447
 20
941.3670801921387
 30
0.0
  0
VERTEX
  5
158
100
AcDbEntity
  8
PLAN01
  6
CONTINUOUS
 62
     5
100
AcDbVertex
100
AcDb2dVertex
 10
333.0681371018218
 20
941.3670801921387
 30
0.0
  0
VERTEX
  5
159
100
AcDbEntity
  8
PLAN01
  6
CONTINUOUS
 62
     5
100
AcDbVertex
100
AcDb2dVertex
 10
333.1287512601141
 20
941.3670801921387
 30
0.0
  0
VERTEX
  5
15A
100
AcDbEntity
  8
PLAN01
  6
CONTINUOUS
 62
     5
100
AcDbVertex
100
AcDb2dVertex
 10
333.1497931446173
 20
941.3670801921387
 30
0.0
  0
VERTEX
  5
15B
100
AcDbEntity
  8
PLAN01
  6
CONTINUOUS
 62
     5
100
AcDbVertex
100
AcDb2dVertex
 10
333.188720630938
 20
941.3670801921387
 30
0.0
  0
VERTEX
  5
15C
100
AcDbEntity
  8
PLAN01
  6
CONTINUOUS
 62
     5
100
AcDbVertex
100
AcDb2dVertex
 10
333.3008568238129
 20
941.3670801921396
 30
0.0
  0
VERTEX
  5
15D
100
AcDbEntity
  8
PLAN01
  6
CONTINUOUS
 62
     5
100
AcDbVertex
100
AcDb2dVertex
 10
333.4792323241454
 20
941.3670801921387
 30
0.0
  0
VERTEX
  5
15E
100
AcDbEntity
  8
PLAN01
  6
CONTINUOUS
 62
     5
100
AcDbVertex
100
AcDb2dVertex
 10
333.716877732839
 20
941.3670801921393
 30
0.0
  0
VERTEX
  5
15F
100
AcDbEntity
  8
PLAN01
  6
CONTINUOUS
 62
     5
100
AcDbVertex
100
AcDb2dVertex
 10
334.0068236507636
 20
941.3670801921387
 30
0.0
  0
VERTEX
  5
160
100
AcDbEntity
  8
PLAN01
  6
CONTINUOUS
 62
     5
100
AcDbVertex
100
AcDb2dVertex
 10
334.3421006788874
 20
941.3670801921387
 30
0.0
  0
VERTEX
  5
161
100
AcDbEntity
  8
PLAN01
  6
CONTINUOUS
 62
     5
100
AcDbVertex
100
AcDb2dVertex
 10
334.7157394180167
 20
941.3670801921393
 30
0.0
  0
VERTEX
  5
162
100
AcDbEntity
  8
PLAN01
  6
CONTINUOUS
 62
     5
100
AcDbVertex
100
AcDb2dVertex
 10
335.1207704691026
 20
941.3670801921387
 30
0.0
  0
VERTEX
  5
163
100
AcDbEntity
  8
PLAN01
  6
CONTINUOUS
 62
     5
100
AcDbVertex
100
AcDb2dVertex
 10
335.5502244330485
 20
941.3670801921387
 30
0.0
  0
VERTEX
  5
164
100
AcDbEntity
  8
PLAN01
  6
CONTINUOUS
 62
     5
100
AcDbVertex
100
AcDb2dVertex
 10
335.9971319107571
 20
941.3670801921387
 30
0.0
  0
VERTEX
  5
165
100
AcDbEntity
  8
PLAN01
  6
CONTINUOUS
 62
     5
100
AcDbVertex
100
AcDb2dVertex
 10
336.4545235030833
 20
941.3670801921387
 30
0.0
  0
VERTEX
  5
166
100
AcDbEntity
  8
PLAN01
  6
CONTINUOUS
 62
     5
100
AcDbVertex
100
AcDb2dVertex
 10
336.915429810995
 20
941.3670801921387
 30
0.0
  0
VERTEX
  5
167
100
AcDbEntity
  8
PLAN01
  6
CONTINUOUS
 62
     5
100
AcDbVertex
100
AcDb2dVertex
 10
337.3728814353139
 20
941.3670801921387
 30
0.0
  0
VERTEX
  5
168
100
AcDbEntity
  8
PLAN01
  6
CONTINUOUS
 62
     5
100
AcDbVertex
100
AcDb2dVertex
 10
337.8199089770078
 20
941.3670801921387
 30
0.0
  0
VERTEX
  5
169
100
AcDbEntity
  8
PLAN01
  6
CONTINUOUS
 62
     5
100
AcDbVertex
100
AcDb2dVertex
 10
338.2495430369317
 20
941.3670801921387
 30
0.0
  0
VERTEX
  5
16A
100
AcDbEntity
  8
PLAN01
  6
CONTINUOUS
 62
     5
100
AcDbVertex
100
AcDb2dVertex
 10
338.632407142951
 20
941.3670801921387
 30
0.0
  0
VERTEX
  5
16B
100
AcDbEntity
  8
PLAN01
  6
CONTINUOUS
 62
     5
100
AcDbVertex
100
AcDb2dVertex
 10
339.0152712490024
 20
941.3670801921396
 30
0.0
  0
VERTEX
  5
16C
100
AcDbEntity
  8
PLAN01
  6
CONTINUOUS
 62
     5
100
AcDbVertex
100
AcDb2dVertex
 10
339.3981353550215
 20
941.3670801921387
 30
0.0
  0
VERTEX
  5
16D
100
AcDbEntity
  8
PLAN01
  6
CONTINUOUS
 62
     5
100
AcDbVertex
100
AcDb2dVertex
 10
339.7809994610729
 20
941.3670801921393
 30
0.0
  0
VERTEX
  5
16E
100
AcDbEntity
  8
PLAN01
  6
CONTINUOUS
 62
     5
100
AcDbVertex
100
AcDb2dVertex
 10
340.163863567092
 20
941.3670801921387
 30
0.0
  0
VERTEX
  5
16F
100
AcDbEntity
  8
PLAN01
  6
CONTINUOUS
 62
     5
100
AcDbVertex
100
AcDb2dVertex
 10
340.5467276731112
 20
941.3670801921387
 30
0.0
  0
VERTEX
  5
170
100
AcDbEntity
  8
PLAN01
  6
CONTINUOUS
 62
     5
100
AcDbVertex
100
AcDb2dVertex
 10
340.9295917791465
 20
941.3670801921393
 30
0.0
  0
VERTEX
  5
171
100
AcDbEntity
  8
PLAN01
  6
CONTINUOUS
 62
     5
100
AcDbVertex
100
AcDb2dVertex
 10
341.3124558851494
 20
941.3670801921387
 30
0.0
  0
VERTEX
  5
172
100
AcDbEntity
  8
PLAN01
  6
CONTINUOUS
 62
     5
100
AcDbVertex
100
AcDb2dVertex
 10
341.6953199912008
 20
941.3670801921387
 30
0.0
  0
VERTEX
  5
173
100
AcDbEntity
  8
PLAN01
  6
CONTINUOUS
 62
     5
100
AcDbVertex
100
AcDb2dVertex
 10
342.07818409722
 20
941.3670801921387
 30
0.0
  0
VERTEX
  5
174
100
AcDbEntity
  8
PLAN01
  6
CONTINUOUS
 62
     5
100
AcDbVertex
100
AcDb2dVertex
 10
342.4610482032391
 20
941.3670801921387
 30
0.0
  0
VERTEX
  5
175
100
AcDbEntity
  8
PLAN01
  6
CONTINUOUS
 62
     5
100
AcDbVertex
100
AcDb2dVertex
 10
342.8439123092584
 20
941.3670801921387
 30
0.0
  0
VERTEX
  5
176
100
AcDbEntity
  8
PLAN01
  6
CONTINUOUS
 62
     5
100
AcDbVertex
100
AcDb2dVertex
 10
343.2267764152936
 20
941.3670801921387
 30
0.0
  0
VERTEX
  5
177
100
AcDbEntity
  8
PLAN01
  6
CONTINUOUS
 62
     5
100
AcDbVertex
100
AcDb2dVertex
 10
343.6096405213123
 20
941.3670801921387
 30
0.0
  0
VERTEX
  5
178
100
AcDbEntity
  8
PLAN01
  6
CONTINUOUS
 62
     5
100
AcDbVertex
100
AcDb2dVertex
 10
343.9925046273478
 20
941.3670801921387
 30
0.0
  0
VERTEX
  5
179
100
AcDbEntity
  8
PLAN01
  6
CONTINUOUS
 62
     5
100
AcDbVertex
100
AcDb2dVertex
 10
344.252873363195
 20
941.3666549045974
 30
0.0
  0
VERTEX
  5
17A
100
AcDbEntity
  8
PLAN01
  6
CONTINUOUS
 62
     5
100
AcDbVertex
100
AcDb2dVertex
 10
344.5132395637584
 20
941.3654090754109
 30
0.0
  0
VERTEX
  5
17B
100
AcDbEntity
  8
PLAN01
  6
CONTINUOUS
 62
     5
100
AcDbVertex
100
AcDb2dVertex
 10
344.7736031169901
 20
941.3633877547276
 30
0.0
  0
VERTEX
  5
17C
100
AcDbEntity
  8
PLAN01
  6
CONTINUOUS
 62
     5
100
AcDbVertex
100
AcDb2dVertex
 10
345.0339639109231
 20
941.3606359927022
 30
0.0
  0
VERTEX
  5
17D
100
AcDbEntity
  8
PLAN01
  6
CONTINUOUS
 62
     5
100
AcDbVertex
100
AcDb2dVertex
 10
345.2943218336227
 20
941.357198839484
 30
0.0
  0
VERTEX
  5
17E
100
AcDbEntity
  8
PLAN01
  6
CONTINUOUS
 62
     5
100
AcDbVertex
100
AcDb2dVertex
 10
345.5546767730899
 20
941.3531213452271
 30
0.0
  0
VERTEX
  5
17F
100
AcDbEntity
  8
PLAN01
  6
CONTINUOUS
 62
     5
100
AcDbVertex
100
AcDb2dVertex
 10
345.815028617358
 20
941.3484485600822
 30
0.0
  0
VERTEX
  5
180
100
AcDbEntity
  8
PLAN01
  6
CONTINUOUS
 62
     5
100
AcDbVertex
100
AcDb2dVertex
 10
346.0753772544916
 20
941.3432255342007
 30
0.0
  0
VERTEX
  5
181
100
AcDbEntity
  8
PLAN01
  6
CONTINUOUS
 62
     5
100
AcDbVertex
100
AcDb2dVertex
 10
346.3357225724925
 20
941.337497317736
 30
0.0
  0
VERTEX
  5
182
100
AcDbEntity
  8
PLAN01
  6
CONTINUOUS
 62
     5
100
AcDbVertex
100
AcDb2dVertex
 10
346.5960644594258
 20
941.3313089608381
 30
0.0
  0
VERTEX
  5
183
100
AcDbEntity
  8
PLAN01
  6
CONTINUOUS
 62
     5
100
AcDbVertex
100
AcDb2dVertex
 10
346.8564028032921
 20
941.3247055136604
 30
0.0
  0
VERTEX
  5
184
100
AcDbEntity
  8
PLAN01
  6
CONTINUOUS
 62
     5
100
AcDbVertex
100
AcDb2dVertex
 10
347.1167374921402
 20
941.3177320263535
 30
0.0
  0
VERTEX
  5
185
100
AcDbEntity
  8
PLAN01
  6
CONTINUOUS
 62
     5
100
AcDbVertex
100
AcDb2dVertex
 10
347.3770684139884
 20
941.3104335490707
 30
0.0
  0
VERTEX
  5
186
100
AcDbEntity
  8
PLAN01
  6
CONTINUOUS
 62
     5
100
AcDbVertex
100
AcDb2dVertex
 10
347.6373954568846
 20
941.3028551319627
 30
0.0
  0
VERTEX
  5
187
100
AcDbEntity
  8
PLAN01
  6
CONTINUOUS
 62
     5
100
AcDbVertex
100
AcDb2dVertex
 10
347.8977185088465
 20
941.295041825181
 30
0.0
  0
VERTEX
  5
188
100
AcDbEntity
  8
PLAN01
  6
CONTINUOUS
 62
     5
100
AcDbVertex
100
AcDb2dVertex
 10
348.789049281558
 20
941.2669728510259
 30
0.0
  0
VERTEX
  5
189
100
AcDbEntity
  8
PLAN01
  6
CONTINUOUS
 62
     5
100
AcDbVertex
100
AcDb2dVertex
 10
349.6803572005946
 20
941.2369134811667
 30
0.0
  0
VERTEX
  5
18A
100
AcDbEntity
  8
PLAN01
  6
CONTINUOUS
 62
     5
100
AcDbVertex
100
AcDb2dVertex
 10
350.5716374083661
 20
941.2047744869253
 30
0.0
  0
VERTEX
  5
18B
100
AcDbEntity
  8
PLAN01
  6
CONTINUOUS
 62
     5
100
AcDbVertex
100
AcDb2dVertex
 10
351.4628850473478
 20
941.1704666396222
 30
0.0
  0
VERTEX
  5
18C
100
AcDbEntity
  8
PLAN01
  6
CONTINUOUS
 62
     5
100
AcDbVertex
100
AcDb2dVertex
 10
352.3540952599339
 20
941.1339007105803
 30
0.0
  0
VERTEX
  5
18D
100
AcDbEntity
  8
PLAN01
  6
CONTINUOUS
 62
     5
100
AcDbVertex
100
AcDb2dVertex
 10
353.2452631886481
 20
941.0949874711203
 30
0.0
  0
VERTEX
  5
18E
100
AcDbEntity
  8
PLAN01
  6
CONTINUOUS
 62
     5
100
AcDbVertex
100
AcDb2dVertex
 10
354.1363839758842
 20
941.0536376925644
 30
0.0
  0
VERTEX
  5
18F
100
AcDbEntity
  8
PLAN01
  6
CONTINUOUS
 62
     5
100
AcDbVertex
100
AcDb2dVertex
 10
355.0274527640686
 20
941.0097621462327
 30
0.0
  0
VERTEX
  5
190
100
AcDbEntity
  8
PLAN01
  6
CONTINUOUS
 62
     5
100
AcDbVertex
100
AcDb2dVertex
 10
355.9184646957252
 20
940.9632716034497
 30
0.0
  0
VERTEX
  5
191
100
AcDbEntity
  8
PLAN01
  6
CONTINUOUS
 62
     5
100
AcDbVertex
100
AcDb2dVertex
 10
356.809414913264
 20
940.9140768355356
 30
0.0
  0
VERTEX
  5
192
100
AcDbEntity
  8
PLAN01
  6
CONTINUOUS
 62
     5
100
AcDbVertex
100
AcDb2dVertex
 10
357.7002985590953
 20
940.862088613812
 30
0.0
  0
VERTEX
  5
193
100
AcDbEntity
  8
PLAN01
  6
CONTINUOUS
 62
     5
100
AcDbVertex
100
AcDb2dVertex
 10
358.5911107756945
 20
940.8072177096009
 30
0.0
  0
VERTEX
  5
194
100
AcDbEntity
  8
PLAN01
  6
CONTINUOUS
 62
     5
100
AcDbVertex
100
AcDb2dVertex
 10
359.4818467055037
 20
940.7493748942236
 30
0.0
  0
VERTEX
  5
195
100
AcDbEntity
  8
PLAN01
  6
CONTINUOUS
 62
     5
100
AcDbVertex
100
AcDb2dVertex
 10
360.3725014909661
 20
940.6884709390018
 30
0.0
  0
VERTEX
  5
196
100
AcDbEntity
  8
PLAN01
  6
CONTINUOUS
 62
     5
100
AcDbVertex
100
AcDb2dVertex
 10
361.2630702745565
 20
940.6244166152573
 30
0.0
  0
VERTEX
  5
197
100
AcDbEntity
  8
PLAN01
  6
CONTINUOUS
 62
     5
100
AcDbVertex
100
AcDb2dVertex
 10
361.6496400142516
 20
940.5955713697064
 30
0.0
  0
VERTEX
  5
198
100
AcDbEntity
  8
PLAN01
  6
CONTINUOUS
 62
     5
100
AcDbVertex
100
AcDb2dVertex
 10
362.0361894551523
 20
940.5660881709097
 30
0.0
  0
VERTEX
  5
199
100
AcDbEntity
  8
PLAN01
  6
CONTINUOUS
 62
     5
100
AcDbVertex
100
AcDb2dVertex
 10
362.4227208306422
 20
940.536036877593
 30
0.0
  0
VERTEX
  5
19A
100
AcDbEntity
  8
PLAN01
  6
CONTINUOUS
 62
     5
100
AcDbVertex
100
AcDb2dVertex
 10
362.8092363741355
 20
940.5054873484834
 30
0.0
  0
VERTEX
  5
19B
100
AcDbEntity
  8
PLAN01
  6
CONTINUOUS
 62
     5
100
AcDbVertex
100
AcDb2dVertex
 10
363.1957383189996
 20
940.4745094423086
 30
0.0
  0
VERTEX
  5
19C
100
AcDbEntity
  8
PLAN01
  6
CONTINUOUS
 62
     5
100
AcDbVertex
100
AcDb2dVertex
 10
363.5822288986489
 20
940.4431730177945
 30
0.0
  0
VERTEX
  5
19D
100
AcDbEntity
  8
PLAN01
  6
CONTINUOUS
 62
     5
100
AcDbVertex
100
AcDb2dVertex
 10
363.9687103464664
 20
940.4115479336681
 30
0.0
  0
VERTEX
  5
19E
100
AcDbEntity
  8
PLAN01
  6
CONTINUOUS
 62
     5
100
AcDbVertex
100
AcDb2dVertex
 10
364.3551848958836
 20
940.3797040486557
 30
0.0
  0
VERTEX
  5
19F
100
AcDbEntity
  8
PLAN01
  6
CONTINUOUS
 62
     5
100
AcDbVertex
100
AcDb2dVertex
 10
364.7416547802833
 20
940.347711221484
 30
0.0
  0
VERTEX
  5
1A0
100
AcDbEntity
  8
PLAN01
  6
CONTINUOUS
 62
     5
100
AcDbVertex
100
AcDb2dVertex
 10
365.1281222330479
 20
940.3156393108814
 30
0.0
  0
VERTEX
  5
1A1
100
AcDbEntity
  8
PLAN01
  6
CONTINUOUS
 62
     5
100
AcDbVertex
100
AcDb2dVertex
 10
365.5145894875766
 20
940.2835581755732
 30
0.0
  0
VERTEX
  5
1A2
100
AcDbEntity
  8
PLAN01
  6
CONTINUOUS
 62
     5
100
AcDbVertex
100
AcDb2dVertex
 10
365.9010587772846
 20
940.2515376742861
 30
0.0
  0
VERTEX
  5
1A3
100
AcDbEntity
  8
PLAN01
  6
CONTINUOUS
 62
     5
100
AcDbVertex
100
AcDb2dVertex
 10
366.2875323355706
 20
940.2196476657474
 30
0.0
  0
VERTEX
  5
1A4
100
AcDbEntity
  8
PLAN01
  6
CONTINUOUS
 62
     5
100
AcDbVertex
100
AcDb2dVertex
 10
366.6740123958176
 20
940.187958008685
 30
0.0
  0
VERTEX
  5
1A5
100
AcDbEntity
  8
PLAN01
  6
CONTINUOUS
 62
     5
100
AcDbVertex
100
AcDb2dVertex
 10
367.0605011914244
 20
940.1565385618223
 30
0.0
  0
VERTEX
  5
1A6
100
AcDbEntity
  8
PLAN01
  6
CONTINUOUS
 62
     5
100
AcDbVertex
100
AcDb2dVertex
 10
367.5551327589407
 20
940.1160874429013
 30
0.0
  0
VERTEX
  5
1A7
100
AcDbEntity
  8
PLAN01
  6
CONTINUOUS
 62
     5
100
AcDbVertex
100
AcDb2dVertex
 10
368.0497349965349
 20
940.0747914965474
 30
0.0
  0
VERTEX
  5
1A8
100
AcDbEntity
  8
PLAN01
  6
CONTINUOUS
 62
     5
100
AcDbVertex
100
AcDb2dVertex
 10
368.5443098985901
 20
940.0327102314317
 30
0.0
  0
VERTEX
  5
1A9
100
AcDbEntity
  8
PLAN01
  6
CONTINUOUS
 62
     5
100
AcDbVertex
100
AcDb2dVertex
 10
369.0388594595219
 20
939.9899031562233
 30
0.0
  0
VERTEX
  5
1AA
100
AcDbEntity
  8
PLAN01
  6
CONTINUOUS
 62
     5
100
AcDbVertex
100
AcDb2dVertex
 10
369.5333856736973
 20
939.9464297795942
 30
0.0
  0
VERTEX
  5
1AB
100
AcDbEntity
  8
PLAN01
  6
CONTINUOUS
 62
     5
100
AcDbVertex
100
AcDb2dVertex
 10
370.0278905355473
 20
939.9023496102143
 30
0.0
  0
VERTEX
  5
1AC
100
AcDbEntity
  8
PLAN01
  6
CONTINUOUS
 62
     5
100
AcDbVertex
100
AcDb2dVertex
 10
370.5223760394068
 20
939.8577221567531
 30
0.0
  0
VERTEX
  5
1AD
100
AcDbEntity
  8
PLAN01
  6
CONTINUOUS
 62
     5
100
AcDbVertex
100
AcDb2dVertex
 10
371.0168441797397
 20
939.8126069278822
 30
0.0
  0
VERTEX
  5
1AE
100
AcDbEntity
  8
PLAN01
  6
CONTINUOUS
 62
     5
100
AcDbVertex
100
AcDb2dVertex
 10
371.5112969509129
 20
939.7670634322722
 30
0.0
  0
VERTEX
  5
1AF
100
AcDbEntity
  8
PLAN01
  6
CONTINUOUS
 62
     5
100
AcDbVertex
100
AcDb2dVertex
 10
372.0057363473092
 20
939.7211511785931
 30
0.0
  0
VERTEX
  5
1B0
100
AcDbEntity
  8
PLAN01
  6
CONTINUOUS
 62
     5
100
AcDbVertex
100
AcDb2dVertex
 10
372.5001643633119
 20
939.6749296755157
 30
0.0
  0
VERTEX
  5
1B1
100
AcDbEntity
  8
PLAN01
  6
CONTINUOUS
 62
     5
100
AcDbVertex
100
AcDb2dVertex
 10
372.9945829933847
 20
939.6284584317099
 30
0.0
  0
VERTEX
  5
1B2
100
AcDbEntity
  8
PLAN01
  6
CONTINUOUS
 62
     5
100
AcDbVertex
100
AcDb2dVertex
 10
373.4889942318299
 20
939.5817969558464
 30
0.0
  0
VERTEX
  5
1B3
100
AcDbEntity
  8
PLAN01
  6
CONTINUOUS
 62
     5
100
AcDbVertex
100
AcDb2dVertex
 10
373.9834000730791
 20
939.5350047565967
 30
0.0
  0
VERTEX
  5
1B4
100
AcDbEntity
  8
PLAN01
  6
CONTINUOUS
 62
     5
100
AcDbVertex
100
AcDb2dVertex
 10
374.4778025115316
 20
939.4881413426299
 30
0.0
  0
SEQEND
  5
1B5
100
AcDbEntity
  8
PLAN01
  6
CONTINUOUS
 62
     5
  0
LINE
  5
1B6
100
AcDbEntity
  8
PLAN10
  6
CONTINUOUS
 62
     5
100
AcDbLine
 10
309.2091396421805
 20
878.1931223953799
 30
0.0
 11
317.6572672410032
 21
879.2868473407438
 31
0.0
  0
LINE
  5
1B7
100
AcDbEntity
  8
PLAN10
  6
CONTINUOUS
 62
     5
100
AcDbLine
 10
317.6572672410032
 20
879.2868473407438
 30
0.0
 11
327.7480584668849
 21
880.745146688419
 31
0.0
  0
LINE
  5
1B8
100
AcDbEntity
  8
PLAN10
  6
CONTINUOUS
 62
     5
100
AcDbLine
 10
327.7480584668849
 20
880.745146688419
 30
0.0
 11
335.7268356969469
 21
881.8388698953544
 31
0.0
  0
LINE
  5
1B9
100
AcDbEntity
  8
PLAN10
  6
CONTINUOUS
 62
     5
100
AcDbLine
 10
335.7268356969469
 20
881.8388698953544
 30
0.0
 11
347.2256601252174
 21
883.2971692430303
 31
0.0
  0
LINE
  5
1BA
100
AcDbEntity
  8
PLAN10
  6
CONTINUOUS
 62
     5
100
AcDbLine
 10
347.2256601252174
 20
883.2971692430303
 30
0.0
 11
362.0098476153943
 21
885.8491935360694
 31
0.0
  0
LINE
  5
1BB
100
AcDbEntity
  8
PLAN10
  6
CONTINUOUS
 62
     5
100
AcDbLine
 10
362.0098476153943
 20
885.8491935360694
 30
0.0
 11
377.0287192418899
 21
887.6720655476294
 31
0.0
  0
LINE
  5
1BC
100
AcDbEntity
  8
PLAN10
  6
CONTINUOUS
 62
     5
100
AcDbLine
 10
377.0287192418899
 20
887.6720655476294
 30
0.0
 11
389.70089273623
 21
889.4949392976162
 31
0.0
  0
LINE
  5
1BD
100
AcDbEntity
  8
PLAN10
  6
CONTINUOUS
 62
     5
100
AcDbLine
 10
389.70089273623
 20
889.4949392976162
 30
0.0
 11
400.9650509320754
 21
890.9532403837202
 31
0.0
  0
LINE
  5
1BE
100
AcDbEntity
  8
PLAN10
  6
CONTINUOUS
 62
     5
100
AcDbLine
 10
400.9650509320754
 20
890.9532403837202
 30
0.0
 11
415.9839046546775
 21
892.4115379929679
 31
0.0
  0
LINE
  5
1BF
100
AcDbEntity
  8
PLAN10
  6
CONTINUOUS
 62
     5
100
AcDbLine
 10
415.9839046546775
 20
892.4115379929679
 30
0.0
 11
430.5334259123963
 21
893.8698356022158
 31
0.0
  0
LINE
  5
1C0
100
AcDbEntity
  8
PLAN10
  6
CONTINUOUS
 62
     5
100
AcDbLine
 10
430.5334259123963
 20
893.8698356022158
 30
0.0
 11
444.1442822403806
 21
894.9635605475791
 31
0.0
  0
LINE
  5
1C1
100
AcDbEntity
  8
PLAN10
  6
CONTINUOUS
 62
     5
100
AcDbLine
 10
444.1442822403806
 20
894.9635605475791
 30
0.0
 11
460.5711691654037
 21
895.3281366883192
 31
0.0
  0
LINE
  5
1C2
100
AcDbEntity
  8
PLAN10
  6
CONTINUOUS
 62
     5
100
AcDbLine
 10
460.5711691654037
 20
895.3281366883192
 30
0.0
 11
475.8247070243249
 21
895.3281366883192
 31
0.0
  0
LINE
  5
1C3
100
AcDbEntity
  8
PLAN10
  6
CONTINUOUS
 62
     5
100
AcDbLine
 10
475.8247070243249
 20
895.3281366883192
 30
0.0
 11
488.0275301498883
 21
895.6927093522029
 31
0.0
  0
LINE
  5
1C4
100
AcDbEntity
  8
PLAN10
  6
CONTINUOUS
 62
     5
100
AcDbLine
 10
488.0275301498883
 20
895.6927093522029
 30
0.0
 11
497.4143226784774
 21
896.0572854929427
 31
0.0
  0
LINE
  5
1C5
100
AcDbEntity
  8
PLAN10
  6
CONTINUOUS
 62
     5
100
AcDbLine
 10
161.3671617931557
 20
887.6720655476294
 30
0.0
 11
177.3247117773061
 21
883.2971692430303
 31
0.0
  0
LINE
  5
1C6
100
AcDbEntity
  8
PLAN10
  6
CONTINUOUS
 62
     5
100
AcDbLine
 10
177.3247117773061
 20
883.2971692430303
 30
0.0
 11
189.0582024380183
 21
880.745146688419
 31
0.0
  0
LINE
  5
1C7
100
AcDbEntity
  8
PLAN10
  6
CONTINUOUS
 62
     5
100
AcDbLine
 10
189.0582024380183
 20
880.745146688419
 30
0.0
 11
202.1997083972419
 21
877.8285479930678
 31
0.0
  0
LINE
  5
1C8
100
AcDbEntity
  8
PLAN10
  6
CONTINUOUS
 62
     5
100
AcDbLine
 10
202.1997083972419
 20
877.8285479930678
 30
0.0
 11
214.4025404747682
 21
876.0056742430805
 31
0.0
  0
LINE
  5
1C9
100
AcDbEntity
  8
PLAN10
  6
CONTINUOUS
 62
     5
100
AcDbLine
 10
214.4025404747682
 20
876.0056742430805
 30
0.0
 11
225.901364903055
 21
874.1828004930926
 31
0.0
  0
LINE
  5
1CA
100
AcDbEntity
  8
PLAN10
  6
CONTINUOUS
 62
     5
100
AcDbLine
 10
225.901364903055
 20
874.1828004930926
 30
0.0
 11
234.8188160148142
 21
873.0890772861569
 31
0.0
  0
LINE
  5
1CB
100
AcDbEntity
  8
PLAN10
  6
CONTINUOUS
 62
     5
100
AcDbLine
 10
234.8188160148142
 20
873.0890772861569
 30
0.0
 11
249.3683372725331
 21
872.7245011454174
 31
0.0
  0
LINE
  5
1CC
100
AcDbEntity
  8
PLAN10
  6
CONTINUOUS
 62
     5
100
AcDbLine
 10
249.3683372725331
 20
872.7245011454174
 30
0.0
 11
261.8058445344479
 21
873.0890772861569
 31
0.0
  0
LINE
  5
1CD
100
AcDbEntity
  8
PLAN10
  6
CONTINUOUS
 62
     5
100
AcDbLine
 10
261.8058445344479
 20
873.0890772861569
 30
0.0
 11
271.1926370630209
 21
873.4536516884691
 31
0.0
  0
LINE
  5
1CE
100
AcDbEntity
  8
PLAN10
  6
CONTINUOUS
 62
     5
100
AcDbLine
 10
271.1926370630209
 20
873.4536516884691
 30
0.0
 11
281.9874448900891
 21
874.5473748954047
 31
0.0
  0
LINE
  5
1CF
100
AcDbEntity
  8
PLAN10
  6
CONTINUOUS
 62
     5
100
AcDbLine
 10
281.9874448900891
 20
874.5473748954047
 30
0.0
 11
291.608903651104
 21
875.6410998407686
 31
0.0
  0
LINE
  5
1D0
100
AcDbEntity
  8
PLAN10
  6
CONTINUOUS
 62
     5
100
AcDbLine
 10
291.608903651104
 20
875.6410998407686
 30
0.0
 11
300.7610299472354
 21
876.7348247861322
 31
0.0
  0
LINE
  5
1D1
100
AcDbEntity
  8
PLAN10
  6
CONTINUOUS
 62
     5
100
AcDbLine
 10
300.7610299472354
 20
876.7348247861322
 30
0.0
 11
309.2091396421805
 21
878.1931223953799
 31
0.0
  0
LINE
  5
1D2
100
AcDbEntity
  8
PLAN10
  6
CONTINUOUS
 62
     5
100
AcDbLine
 10
143.2975888612386
 20
916.8380490242842
 30
0.0
 11
132.7374472665958
 21
912.0985731020898
 31
0.0
  0
LINE
  5
1D3
100
AcDbEntity
  8
PLAN10
  6
CONTINUOUS
 62
     5
100
AcDbLine
 10
132.7374472665958
 20
912.0985731020898
 30
0.0
 11
127.1053726446306
 21
909.1819778835947
 31
0.0
  0
LINE
  5
1D4
100
AcDbEntity
  8
PLAN10
  6
CONTINUOUS
 62
     5
100
AcDbLine
 10
127.1053726446306
 20
909.1819778835947
 30
0.0
 11
124.5240038040924
 21
907.3591041336074
 31
0.0
  0
LINE
  5
1D5
100
AcDbEntity
  8
PLAN10
  6
CONTINUOUS
 62
     5
100
AcDbLine
 10
124.5240038040924
 20
907.3591041336074
 30
0.0
 11
123.1159840295914
 21
905.9008030475039
 31
0.0
  0
LINE
  5
1D6
100
AcDbEntity
  8
PLAN10
  6
CONTINUOUS
 62
     5
100
AcDbLine
 10
123.1159840295914
 20
905.9008030475039
 30
0.0
 11
122.4119741423734
 21
904.8070781021401
 31
0.0
  0
LINE
  5
1D7
100
AcDbEntity
  8
PLAN10
  6
CONTINUOUS
 62
     5
100
AcDbLine
 10
122.4119741423734
 20
904.8070781021401
 30
0.0
 11
121.9426349635381
 21
903.7133566336329
 31
0.0
  0
LINE
  5
1D8
100
AcDbEntity
  8
PLAN10
  6
CONTINUOUS
 62
     5
100
AcDbLine
 10
121.9426349635381
 20
903.7133566336329
 30
0.0
 11
122.4119741423734
 21
902.6196316882691
 31
0.0
  0
LINE
  5
1D9
100
AcDbEntity
  8
PLAN10
  6
CONTINUOUS
 62
     5
100
AcDbLine
 10
122.4119741423734
 20
902.6196316882691
 30
0.0
 11
123.1159840295914
 21
901.8904828836445
 31
0.0
  0
LINE
  5
1DA
100
AcDbEntity
  8
PLAN10
  6
CONTINUOUS
 62
     5
100
AcDbLine
 10
123.1159840295914
 20
901.8904828836445
 30
0.0
 11
124.2893330956934
 21
900.796757938281
 31
0.0
  0
LINE
  5
1DB
100
AcDbEntity
  8
PLAN10
  6
CONTINUOUS
 62
     5
100
AcDbLine
 10
124.2893330956934
 20
900.796757938281
 30
0.0
 11
126.6360312278165
 21
899.3384568521774
 31
0.0
  0
LINE
  5
1DC
100
AcDbEntity
  8
PLAN10
  6
CONTINUOUS
 62
     5
100
AcDbLine
 10
126.6360312278165
 20
899.3384568521774
 30
0.0
 11
130.6254198428555
 21
897.5155831021902
 31
0.0
  0
LINE
  5
1DD
100
AcDbEntity
  8
PLAN10
  6
CONTINUOUS
 62
     5
100
AcDbLine
 10
130.6254198428555
 20
897.5155831021902
 30
0.0
 11
136.2574944648047
 21
895.3281366883192
 31
0.0
  0
LINE
  5
1DE
100
AcDbEntity
  8
PLAN10
  6
CONTINUOUS
 62
     5
100
AcDbLine
 10
136.2574944648047
 20
895.3281366883192
 30
0.0
 11
149.3990049000018
 21
890.9532403837202
 31
0.0
  0
LINE
  5
1DF
100
AcDbEntity
  8
PLAN10
  6
CONTINUOUS
 62
     5
100
AcDbLine
 10
149.3990049000018
 20
890.9532403837202
 30
0.0
 11
155.2657502303498
 21
889.1303666337321
 31
0.0
  0
LINE
  5
1E0
100
AcDbEntity
  8
PLAN10
  6
CONTINUOUS
 62
     5
100
AcDbLine
 10
155.2657502303498
 20
889.1303666337321
 30
0.0
 11
159.2551343694315
 21
888.0366416883688
 31
0.0
  0
LINE
  5
1E1
100
AcDbEntity
  8
PLAN10
  6
CONTINUOUS
 62
     5
100
AcDbLine
 10
159.2551343694315
 20
888.0366416883688
 30
0.0
 11
161.3671617931557
 21
887.6720655476294
 31
0.0
  0
LINE
  5
1E2
100
AcDbEntity
  8
PLAN10
  6
CONTINUOUS
 62
     5
100
AcDbLine
 10
496.9449902136104
 20
896.0378993192081
 30
0.0
 11
652.7414078572881
 21
901.80871534982
 31
0.0
  0
LINE
  5
1E3
100
AcDbEntity
  8
PLAN01
  6
CONTINUOUS
 62
     5
100
AcDbLine
 10
693.3321946540875
 20
923.3892078926448
 30
0.0
 11
693.3102703689253
 21
900.0630838978965
 31
0.0
  0
LINE
  5
1E4
100
AcDbEntity
  8
1
  6
CONTINUOUS
 62
     5
100
AcDbLine
 10
712.11001489292
 20
1061.410340306489
 30
0.0
 11
740.2836492492919
 21
916.5341756541819
 31
0.0
  0
LINE
  5
1E5
100
AcDbEntity
  8
1
  6
BYBLOCK
 62
     5
100
AcDbLine
 10
693.2707658338178
 20
900.1082487510421
 30
0.0
 11
740.2836492492919
 21
916.5341756541819
 31
0.0
  0
POLYLINE
  5
1E6
100
AcDbEntity
  8
1
  6
BYBLOCK
 62
     5
100
AcDb2dPolyline
 66
     1
 10
0.0
 20
0.0
 30
0.0
  0
VERTEX
  5
1E7
100
AcDbEntity
  8
1
  6
BYBLOCK
 62
     5
100
AcDbVertex
100
AcDb2dVertex
 10
712.225432288522
 20
1060.916738987984
 30
0.0
  0
VERTEX
  5
1E8
100
AcDbEntity
  8
1
  6
BYBLOCK
 62
     5
100
AcDbVertex
100
AcDb2dVertex
 10
708.2724272065796
 20
1061.60931953672
 30
0.0
  0
VERTEX
  5
1E9
100
AcDbEntity
  8
1
  6
BYBLOCK
 62
     5
100
AcDbVertex
100
AcDb2dVertex
 10
704.2420990321053
 20
1061.666002258297
 30
0.0
  0
VERTEX
  5
1EA
100
AcDbEntity
  8
1
  6
BYBLOCK
 62
     5
100
AcDbVertex
100
AcDb2dVertex
 10
698.6860032152872
 20
1061.267031566434
 30
0.0
  0
VERTEX
  5
1EB
100
AcDbEntity
  8
1
  6
BYBLOCK
 62
     5
100
AcDbVertex
100
AcDb2dVertex
 10
693.2486565150727
 20
1060.167475717671
 30
0.0
  0
VERTEX
  5
1EC
100
AcDbEntity
  8
1
  6
BYBLOCK
 62
     5
100
AcDbVertex
100
AcDb2dVertex
 10
687.1118698282389
 20
1057.817117546289
 30
0.0
  0
VERTEX
  5
1ED
100
AcDbEntity
  8
1
  6
BYBLOCK
 62
     5
100
AcDbVertex
100
AcDb2dVertex
 10
681.3390937882878
 20
1054.67287840204
 30
0.0
  0
VERTEX
  5
1EE
100
AcDbEntity
  8
1
  6
BYBLOCK
 62
     5
100
AcDbVertex
100
AcDb2dVertex
 10
677.4072537771661
 20
1051.545844793133
 30
0.0
  0
VERTEX
  5
1EF
100
AcDbEntity
  8
1
  6
BYBLOCK
 62
     5
100
AcDbVertex
100
AcDb2dVertex
 10
673.8792577945871
 20
1047.929508969221
 30
0.0
  0
VERTEX
  5
1F0
100
AcDbEntity
  8
1
  6
BYBLOCK
 62
     5
100
AcDbVertex
100
AcDb2dVertex
 10
667.7281649576761
 20
1040.187121842651
 30
0.0
  0
VERTEX
  5
1F1
100
AcDbEntity
  8
1
  6
BYBLOCK
 62
     5
100
AcDbVertex
100
AcDb2dVertex
 10
657.2582197033595
 20
1021.705294508258
 30
0.0
  0
VERTEX
  5
1F2
100
AcDbEntity
  8
1
  6
BYBLOCK
 62
     5
100
AcDbVertex
100
AcDb2dVertex
 10
651.5888679186017
 20
1009.252846970773
 30
0.0
  0
VERTEX
  5
1F3
100
AcDbEntity
  8
1
  6
BYBLOCK
 62
     5
100
AcDbVertex
100
AcDb2dVertex
 10
646.3219115400159
 20
996.6185697836174
 30
0.0
  0
VERTEX
  5
1F4
100
AcDbEntity
  8
1
  6
BYBLOCK
 62
     5
100
AcDbVertex
100
AcDb2dVertex
 10
642.2111154612893
 20
986.1504441029351
 30
0.0
  0
VERTEX
  5
1F5
100
AcDbEntity
  8
1
  6
BYBLOCK
 62
     5
100
AcDbVertex
100
AcDb2dVertex
 10
638.2077039679202
 20
975.6391982148469
 30
0.0
  0
VERTEX
  5
1F6
100
AcDbEntity
  8
1
  6
BYBLOCK
 62
     5
100
AcDbVertex
100
AcDb2dVertex
 10
627.3451357665664
 20
947.9164572132573
 30
0.0
  0
VERTEX
  5
1F7
100
AcDbEntity
  8
1
  6
BYBLOCK
 62
     5
100
AcDbVertex
100
AcDb2dVertex
 10
621.9792888237296
 20
935.8302571900887
 30
0.0
  0
VERTEX
  5
1F8
100
AcDbEntity
  8
1
  6
BYBLOCK
 62
     5
100
AcDbVertex
100
AcDb2dVertex
 10
620.6330411031412
 20
932.736973077586
 30
0.0
  0
VERTEX
  5
1F9
100
AcDbEntity
  8
1
  6
BYBLOCK
 62
     5
100
AcDbVertex
100
AcDb2dVertex
 10
618.9691795631135
 20
929.8361510275828
 30
0.0
  0
VERTEX
  5
1FA
100
AcDbEntity
  8
1
  6
BYBLOCK
 62
     5
100
AcDbVertex
100
AcDb2dVertex
 10
615.848450699005
 20
926.3737063898021
 30
0.0
  0
VERTEX
  5
1FB
100
AcDbEntity
  8
1
  6
BYBLOCK
 62
     5
100
AcDbVertex
100
AcDb2dVertex
 10
612.335331831153
 20
923.2946506849444
 30
0.0
  0
SEQEND
  5
1FC
100
AcDbEntity
  8
1
  6
BYBLOCK
 62
     5
  0
POLYLINE
  5
1FD
100
AcDbEntity
  8
PLAN01
  6
CONTINUOUS
 62
     5
100
AcDb2dPolyline
 66
     1
 10
0.0
 20
0.0
 30
0.0
  0
VERTEX
  5
1FE
100
AcDbEntity
  8
PLAN01
  6
CONTINUOUS
 62
     5
100
AcDbVertex
100
AcDb2dVertex
 10
308.9744734097389
 20
967.6707752238497
 30
0.0
  0
VERTEX
  5
1FF
100
AcDbEntity
  8
PLAN01
  6
CONTINUOUS
 62
     5
100
AcDbVertex
100
AcDb2dVertex
 10
311.6791484960961
 20
967.0905873769537
 30
0.0
  0
VERTEX
  5
200
100
AcDbEntity
  8
PLAN01
  6
CONTINUOUS
 62
     5
100
AcDbVertex
100
AcDb2dVertex
 10
314.3837440770056
 20
966.5092460182203
 30
0.0
  0
VERTEX
  5
201
100
AcDbEntity
  8
PLAN01
  6
CONTINUOUS
 62
     5
100
AcDbVertex
100
AcDb2dVertex
 10
317.088183666588
 20
965.9259873597523
 30
0.0
  0
VERTEX
  5
202
100
AcDbEntity
  8
PLAN01
  6
CONTINUOUS
 62
     5
100
AcDbVertex
100
AcDb2dVertex
 10
319.7923907789334
 20
965.3400476136557
 30
0.0
  0
VERTEX
  5
203
100
AcDbEntity
  8
PLAN01
  6
CONTINUOUS
 62
     5
100
AcDbVertex
100
AcDb2dVertex
 10
322.4962889281789
 20
964.7506629920346
 30
0.0
  0
VERTEX
  5
204
100
AcDbEntity
  8
PLAN01
  6
CONTINUOUS
 62
     5
100
AcDbVertex
100
AcDb2dVertex
 10
325.1998016283986
 20
964.1570697069937
 30
0.0
  0
VERTEX
  5
205
100
AcDbEntity
  8
PLAN01
  6
CONTINUOUS
 62
     5
100
AcDbVertex
100
AcDb2dVertex
 10
327.9028523936976
 20
963.5585039706375
 30
0.0
  0
VERTEX
  5
206
100
AcDbEntity
  8
PLAN01
  6
CONTINUOUS
 62
     5
100
AcDbVertex
100
AcDb2dVertex
 10
330.6053647381331
 20
962.9542019950704
 30
0.0
  0
VERTEX
  5
207
100
AcDbEntity
  8
PLAN01
  6
CONTINUOUS
 62
     5
100
AcDbVertex
100
AcDb2dVertex
 10
333.3072621759072
 20
962.3433999923975
 30
0.0
  0
VERTEX
  5
208
100
AcDbEntity
  8
PLAN01
  6
CONTINUOUS
 62
     5
100
AcDbVertex
100
AcDb2dVertex
 10
336.0084682210451
 20
961.7253341747233
 30
0.0
  0
VERTEX
  5
209
100
AcDbEntity
  8
PLAN01
  6
CONTINUOUS
 62
     5
100
AcDbVertex
100
AcDb2dVertex
 10
338.7089063876844
 20
961.0992407541518
 30
0.0
  0
VERTEX
  5
20A
100
AcDbEntity
  8
PLAN01
  6
CONTINUOUS
 62
     5
100
AcDbVertex
100
AcDb2dVertex
 10
341.4085001899144
 20
960.4643559427891
 30
0.0
  0
VERTEX
  5
20B
100
AcDbEntity
  8
PLAN01
  6
CONTINUOUS
 62
     5
100
AcDbVertex
100
AcDb2dVertex
 10
344.1071731418412
 20
959.819915952738
 30
0.0
  0
VERTEX
  5
20C
100
AcDbEntity
  8
PLAN01
  6
CONTINUOUS
 62
     5
100
AcDbVertex
100
AcDb2dVertex
 10
346.8048487575696
 20
959.1651569961049
 30
0.0
  0
VERTEX
  5
20D
100
AcDbEntity
  8
PLAN01
  6
CONTINUOUS
 62
     5
100
AcDbVertex
100
AcDb2dVertex
 10
349.5014505511732
 20
958.4993152849929
 30
0.0
  0
VERTEX
  5
20E
100
AcDbEntity
  8
PLAN01
  6
CONTINUOUS
 62
     5
100
AcDbVertex
100
AcDb2dVertex
 10
352.1199161557275
 20
957.8464527369026
 30
0.0
  0
VERTEX
  5
20F
100
AcDbEntity
  8
PLAN01
  6
CONTINUOUS
 62
     5
100
AcDbVertex
100
AcDb2dVertex
 10
354.7382828870874
 20
957.1926176109101
 30
0.0
  0
VERTEX
  5
210
100
AcDbEntity
  8
PLAN01
  6
CONTINUOUS
 62
     5
100
AcDbVertex
100
AcDb2dVertex
 10
357.3565660488156
 20
956.5379604447747
 30
0.0
  0
VERTEX
  5
211
100
AcDbEntity
  8
PLAN01
  6
CONTINUOUS
 62
     5
100
AcDbVertex
100
AcDb2dVertex
 10
359.9747809443318
 20
955.8826317762578
 30
0.0
  0
VERTEX
  5
212
100
AcDbEntity
  8
PLAN01
  6
CONTINUOUS
 62
     5
100
AcDbVertex
100
AcDb2dVertex
 10
362.5929428771506
 20
955.2267821431181
 30
0.0
  0
VERTEX
  5
213
100
AcDbEntity
  8
PLAN01
  6
CONTINUOUS
 62
     5
100
AcDbVertex
100
AcDb2dVertex
 10
365.2110671508196
 20
954.5705620831167
 30
0.0
  0
VERTEX
  5
214
100
AcDbEntity
  8
PLAN01
  6
CONTINUOUS
 62
     5
100
AcDbVertex
100
AcDb2dVertex
 10
367.8291690688057
 20
953.914122134015
 30
0.0
  0
VERTEX
  5
215
100
AcDbEntity
  8
PLAN01
  6
CONTINUOUS
 62
     5
100
AcDbVertex
100
AcDb2dVertex
 10
370.4472639346082
 20
953.2576128335723
 30
0.0
  0
VERTEX
  5
216
100
AcDbEntity
  8
PLAN01
  6
CONTINUOUS
 62
     5
100
AcDbVertex
100
AcDb2dVertex
 10
373.0653670517424
 20
952.6011847195485
 30
0.0
  0
VERTEX
  5
217
100
AcDbEntity
  8
PLAN01
  6
CONTINUOUS
 62
     5
100
AcDbVertex
100
AcDb2dVertex
 10
375.6834937236914
 20
951.9449883297037
 30
0.0
  0
VERTEX
  5
218
100
AcDbEntity
  8
PLAN01
  6
CONTINUOUS
 62
     5
100
AcDbVertex
100
AcDb2dVertex
 10
378.3016592539863
 20
951.2891742018002
 30
0.0
  0
VERTEX
  5
219
100
AcDbEntity
  8
PLAN01
  6
CONTINUOUS
 62
     5
100
AcDbVertex
100
AcDb2dVertex
 10
380.9198789461103
 20
950.6338928735965
 30
0.0
  0
VERTEX
  5
21A
100
AcDbEntity
  8
PLAN01
  6
CONTINUOUS
 62
     5
100
AcDbVertex
100
AcDb2dVertex
 10
383.5381681035466
 20
949.9792948828526
 30
0.0
  0
VERTEX
  5
21B
100
AcDbEntity
  8
PLAN01
  6
CONTINUOUS
 62
     5
100
AcDbVertex
100
AcDb2dVertex
 10
386.1565420298266
 20
949.3255307673306
 30
0.0
  0
VERTEX
  5
21C
100
AcDbEntity
  8
PLAN01
  6
CONTINUOUS
 62
     5
100
AcDbVertex
100
AcDb2dVertex
 10
388.7750160284332
 20
948.6727510647895
 30
0.0
  0
VERTEX
  5
21D
100
AcDbEntity
  8
PLAN01
  6
CONTINUOUS
 62
     5
100
AcDbVertex
100
AcDb2dVertex
 10
396.0052089666946
 20
946.9247918143562
 30
0.0
  0
VERTEX
  5
21E
100
AcDbEntity
  8
PLAN01
  6
CONTINUOUS
 62
     5
100
AcDbVertex
100
AcDb2dVertex
 10
403.2439684114552
 20
945.2758818258523
 30
0.0
  0
VERTEX
  5
21F
100
AcDbEntity
  8
PLAN01
  6
CONTINUOUS
 62
     5
100
AcDbVertex
100
AcDb2dVertex
 10
410.4906227968324
 20
943.7190347082774
 30
0.0
  0
VERTEX
  5
220
100
AcDbEntity
  8
PLAN01
  6
CONTINUOUS
 62
     5
100
AcDbVertex
100
AcDb2dVertex
 10
417.7445005569278
 20
942.2472640706306
 30
0.0
  0
VERTEX
  5
221
100
AcDbEntity
  8
PLAN01
  6
CONTINUOUS
 62
     5
100
AcDbVertex
100
AcDb2dVertex
 10
425.0049301258755
 20
940.8535835219121
 30
0.0
  0
VERTEX
  5
222
100
AcDbEntity
  8
PLAN01
  6
CONTINUOUS
 62
     5
100
AcDbVertex
100
AcDb2dVertex
 10
432.2712399378247
 20
939.5310066711218
 30
0.0
  0
VERTEX
  5
223
100
AcDbEntity
  8
PLAN01
  6
CONTINUOUS
 62
     5
100
AcDbVertex
100
AcDb2dVertex
 10
439.5427584268929
 20
938.2725471272587
 30
0.0
  0
VERTEX
  5
224
100
AcDbEntity
  8
PLAN01
  6
CONTINUOUS
 62
     5
100
AcDbVertex
100
AcDb2dVertex
 10
446.8188140271662
 20
937.0712184993223
 30
0.0
  0
VERTEX
  5
225
100
AcDbEntity
  8
PLAN01
  6
CONTINUOUS
 62
     5
100
AcDbVertex
100
AcDb2dVertex
 10
454.0987351728579
 20
935.9200343963149
 30
0.0
  0
VERTEX
  5
226
100
AcDbEntity
  8
PLAN01
  6
CONTINUOUS
 62
     5
100
AcDbVertex
100
AcDb2dVertex
 10
461.381850298054
 20
934.8120084272341
 30
0.0
  0
VERTEX
  5
227
100
AcDbEntity
  8
PLAN01
  6
CONTINUOUS
 62
     5
100
AcDbVertex
100
AcDb2dVertex
 10
468.6674878368883
 20
933.7401542010802
 30
0.0
  0
VERTEX
  5
228
100
AcDbEntity
  8
PLAN01
  6
CONTINUOUS
 62
     5
100
AcDbVertex
100
AcDb2dVertex
 10
475.9549762234782
 20
932.6974853268525
 30
0.0
  0
VERTEX
  5
229
100
AcDbEntity
  8
PLAN01
  6
CONTINUOUS
 62
     5
100
AcDbVertex
100
AcDb2dVertex
 10
483.2436438919573
 20
931.6770154135518
 30
0.0
  0
VERTEX
  5
22A
100
AcDbEntity
  8
PLAN01
  6
CONTINUOUS
 62
     5
100
AcDbVertex
100
AcDb2dVertex
 10
490.5328192764271
 20
930.6717580701775
 30
0.0
  0
VERTEX
  5
22B
100
AcDbEntity
  8
PLAN01
  6
CONTINUOUS
 62
     5
100
AcDbVertex
100
AcDb2dVertex
 10
497.8218308110696
 20
929.6747269057284
 30
0.0
  0
SEQEND
  5
22C
100
AcDbEntity
  8
PLAN01
  6
CONTINUOUS
 62
     5
  0
POLYLINE
  5
22D
100
AcDbEntity
  8
1
  6
BYBLOCK
 62
     5
100
AcDb2dPolyline
 66
     1
 10
0.0
 20
0.0
 30
0.0
  0
VERTEX
  5
22E
100
AcDbEntity
  8
1
  6
BYBLOCK
 62
     5
100
AcDbVertex
100
AcDb2dVertex
 10
308.9744734097389
 20
967.6707752238497
 30
0.0
  0
VERTEX
  5
22F
100
AcDbEntity
  8
1
  6
BYBLOCK
 62
     5
100
AcDbVertex
100
AcDb2dVertex
 10
303.5490984679408
 20
968.6556671559706
 30
0.0
  0
VERTEX
  5
230
100
AcDbEntity
  8
1
  6
BYBLOCK
 62
     5
100
AcDbVertex
100
AcDb2dVertex
 10
295.8238784452228
 20
969.1922491517004
 30
0.0
  0
VERTEX
  5
231
100
AcDbEntity
  8
1
  6
BYBLOCK
 62
     5
100
AcDbVertex
100
AcDb2dVertex
 10
290.8430607603169
 20
968.9723702232141
 30
0.0
  0
VERTEX
  5
232
100
AcDbEntity
  8
1
  6
BYBLOCK
 62
     5
100
AcDbVertex
100
AcDb2dVertex
 10
285.9022723376138
 20
968.3490488726963
 30
0.0
  0
VERTEX
  5
233
100
AcDbEntity
  8
1
  6
BYBLOCK
 62
     5
100
AcDbVertex
100
AcDb2dVertex
 10
279.6874263561825
 20
966.9032444009454
 30
0.0
  0
VERTEX
  5
234
100
AcDbEntity
  8
1
  6
BYBLOCK
 62
     5
100
AcDbVertex
100
AcDb2dVertex
 10
273.5504756597939
 20
965.1295568983158
 30
0.0
  0
VERTEX
  5
235
100
AcDbEntity
  8
1
  6
BYBLOCK
 62
     5
100
AcDbVertex
100
AcDb2dVertex
 10
259.8419969920294
 20
960.6835917908382
 30
0.0
  0
VERTEX
  5
236
100
AcDbEntity
  8
1
  6
BYBLOCK
 62
     5
100
AcDbVertex
100
AcDb2dVertex
 10
244.0886071417804
 20
955.4710809751755
 30
0.0
  0
VERTEX
  5
237
100
AcDbEntity
  8
1
  6
BYBLOCK
 62
     5
100
AcDbVertex
100
AcDb2dVertex
 10
224.9204398556795
 20
948.9554424555963
 30
0.0
  0
VERTEX
  5
238
100
AcDbEntity
  8
1
  6
BYBLOCK
 62
     5
100
AcDbVertex
100
AcDb2dVertex
 10
204.3198531284311
 20
941.4432945153757
 30
0.0
  0
VERTEX
  5
239
100
AcDbEntity
  8
1
  6
BYBLOCK
 62
     5
100
AcDbVertex
100
AcDb2dVertex
 10
184.4354761217566
 20
933.7011828626996
 30
0.0
  0
VERTEX
  5
23A
100
AcDbEntity
  8
1
  6
BYBLOCK
 62
     5
100
AcDbVertex
100
AcDb2dVertex
 10
168.1107593216284
 20
926.9545043284646
 30
0.0
  0
VERTEX
  5
23B
100
AcDbEntity
  8
1
  6
BYBLOCK
 62
     5
100
AcDbVertex
100
AcDb2dVertex
 10
152.4331069225827
 20
920.6688295213407
 30
0.0
  0
VERTEX
  5
23C
100
AcDbEntity
  8
1
  6
BYBLOCK
 62
     5
100
AcDbVertex
100
AcDb2dVertex
 10
143.2975888612386
 20
916.8380490242842
 30
0.0
  0
SEQEND
  5
23D
100
AcDbEntity
  8
1
  6
BYBLOCK
 62
     5
  0
POLYLINE
  5
23E
100
AcDbEntity
  8
1
  6
CONTINUOUS
 62
     5
100
AcDb2dPolyline
 66
     1
 10
0.0
 20
0.0
 30
0.0
  0
VERTEX
  5
23F
100
AcDbEntity
  8
1
  6
CONTINUOUS
 62
     5
100
AcDbVertex
100
AcDb2dVertex
 10
415.2351463790693
 20
920.2746657646532
 30
0.0
  0
VERTEX
  5
240
100
AcDbEntity
  8
1
  6
CONTINUOUS
 62
     5
100
AcDbVertex
100
AcDb2dVertex
 10
406.1375431630722
 20
920.7184136139723
 30
0.0
  0
VERTEX
  5
241
100
AcDbEntity
  8
1
  6
CONTINUOUS
 62
     5
100
AcDbVertex
100
AcDb2dVertex
 10
396.6015012378702
 20
921.8277832372715
 30
0.0
  0
VERTEX
  5
242
100
AcDbEntity
  8
1
  6
CONTINUOUS
 62
     5
100
AcDbVertex
100
AcDb2dVertex
 10
390.0249205998001
 20
922.7152789359108
 30
0.0
  0
VERTEX
  5
243
100
AcDbEntity
  8
1
  6
CONTINUOUS
 62
     5
100
AcDbVertex
100
AcDb2dVertex
 10
378.1870754512734
 20
924.2683964085296
 30
0.0
  0
VERTEX
  5
244
100
AcDbEntity
  8
1
  6
CONTINUOUS
 62
     5
100
AcDbVertex
100
AcDb2dVertex
 10
367.4453270757587
 20
925.2668290694987
 30
0.0
  0
VERTEX
  5
245
100
AcDbEntity
  8
1
  6
CONTINUOUS
 62
     5
100
AcDbVertex
100
AcDb2dVertex
 10
358.4573335370627
 20
926.154324768138
 30
0.0
  0
VERTEX
  5
246
100
AcDbEntity
  8
1
  6
CONTINUOUS
 62
     5
100
AcDbVertex
100
AcDb2dVertex
 10
348.1540238707527
 20
926.7090095797881
 30
0.0
  0
VERTEX
  5
247
100
AcDbEntity
  8
1
  6
CONTINUOUS
 62
     5
100
AcDbVertex
100
AcDb2dVertex
 10
333.9047658216003
 20
927.1527574291075
 30
0.0
  0
VERTEX
  5
248
100
AcDbEntity
  8
1
  6
CONTINUOUS
 62
     5
100
AcDbVertex
100
AcDb2dVertex
 10
323.1100552592635
 20
926.9308835044476
 30
0.0
  0
VERTEX
  5
249
100
AcDbEntity
  8
1
  6
CONTINUOUS
 62
     5
100
AcDbVertex
100
AcDb2dVertex
 10
319.1641068764216
 20
926.7090095797881
 30
0.0
  0
VERTEX
  5
24A
100
AcDbEntity
  8
1
  6
CONTINUOUS
 62
     5
100
AcDbVertex
100
AcDb2dVertex
 10
314.6701101070735
 20
926.3761986927983
 30
0.0
  0
VERTEX
  5
24B
100
AcDbEntity
  8
1
  6
CONTINUOUS
 62
     5
100
AcDbVertex
100
AcDb2dVertex
 10
311.710648819942
 20
925.9324508434785
 30
0.0
  0
VERTEX
  5
24C
100
AcDbEntity
  8
1
  6
CONTINUOUS
 62
     5
100
AcDbVertex
100
AcDb2dVertex
 10
305.5725068910764
 20
924.8230812201795
 30
0.0
  0
VERTEX
  5
24D
100
AcDbEntity
  8
1
  6
CONTINUOUS
 62
     5
100
AcDbVertex
100
AcDb2dVertex
 10
300.7496810898248
 20
923.0480898229005
 30
0.0
  0
VERTEX
  5
24E
100
AcDbEntity
  8
1
  6
CONTINUOUS
 62
     5
100
AcDbVertex
100
AcDb2dVertex
 10
297.8998294799946
 20
921.2730984256223
 30
0.0
  0
VERTEX
  5
24F
100
AcDbEntity
  8
1
  6
CONTINUOUS
 62
     5
100
AcDbVertex
100
AcDb2dVertex
 10
297.2421714161874
 20
920.385602726983
 30
0.0
  0
VERTEX
  5
250
100
AcDbEntity
  8
1
  6
CONTINUOUS
 62
     5
100
AcDbVertex
100
AcDb2dVertex
 10
297.5019779827207
 20
919.8575516295822
 30
0.0
  0
VERTEX
  5
251
100
AcDbEntity
  8
1
  6
CONTINUOUS
 62
     5
100
AcDbVertex
100
AcDb2dVertex
 10
298.0094391572956
 20
919.4981070283438
 30
0.0
  0
VERTEX
  5
252
100
AcDbEntity
  8
1
  6
CONTINUOUS
 62
     5
100
AcDbVertex
100
AcDb2dVertex
 10
301.5169488309331
 20
918.3887374050447
 30
0.0
  0
VERTEX
  5
253
100
AcDbEntity
  8
1
  6
CONTINUOUS
 62
     5
100
AcDbVertex
100
AcDb2dVertex
 10
307.9839197917022
 20
917.3903047440754
 30
0.0
  0
VERTEX
  5
254
100
AcDbEntity
  8
1
  6
CONTINUOUS
 62
     5
100
AcDbVertex
100
AcDb2dVertex
 10
313.1355746248572
 20
916.9465568947558
 30
0.0
  0
VERTEX
  5
255
100
AcDbEntity
  8
1
  6
CONTINUOUS
 62
     5
100
AcDbVertex
100
AcDb2dVertex
 10
327.6040520286116
 20
916.7246829700955
 30
0.0
  0
VERTEX
  5
256
100
AcDbEntity
  8
1
  6
CONTINUOUS
 62
     5
100
AcDbVertex
100
AcDb2dVertex
 10
341.4148713685593
 20
916.9465568947558
 30
0.0
  0
VERTEX
  5
257
100
AcDbEntity
  8
1
  6
CONTINUOUS
 62
     5
100
AcDbVertex
100
AcDb2dVertex
 10
354.3488132900977
 20
917.5012417064051
 30
0.0
  0
VERTEX
  5
258
100
AcDbEntity
  8
1
  6
CONTINUOUS
 62
     5
100
AcDbVertex
100
AcDb2dVertex
 10
368.4884616619488
 20
918.0559265180548
 30
0.0
  0
VERTEX
  5
259
100
AcDbEntity
  8
1
  6
CONTINUOUS
 62
     5
100
AcDbVertex
100
AcDb2dVertex
 10
379.4494293920657
 20
918.4996743673742
 30
0.0
  0
VERTEX
  5
25A
100
AcDbEntity
  8
1
  6
CONTINUOUS
 62
     5
100
AcDbVertex
100
AcDb2dVertex
 10
389.9719584129782
 20
918.9434222166941
 30
0.0
  0
VERTEX
  5
25B
100
AcDbEntity
  8
1
  6
CONTINUOUS
 62
     5
100
AcDbVertex
100
AcDb2dVertex
 10
400.2752680792882
 20
919.2762331036838
 30
0.0
  0
VERTEX
  5
25C
100
AcDbEntity
  8
1
  6
CONTINUOUS
 62
     5
100
AcDbVertex
100
AcDb2dVertex
 10
407.728726135768
 20
919.8309179153334
 30
0.0
  0
VERTEX
  5
25D
100
AcDbEntity
  8
1
  6
CONTINUOUS
 62
     5
100
AcDbVertex
100
AcDb2dVertex
 10
415.1255367017681
 20
920.2746657646532
 30
0.0
  0
SEQEND
  5
25E
100
AcDbEntity
  8
1
  6
CONTINUOUS
 62
     5
  0
CIRCLE
  5
25F
100
AcDbEntity
  8
1
  6
BYBLOCK
 62
     5
100
AcDbCircle
 10
336.5584127992413
 20
921.6856308379853
 30
0.0
 40
2.622755796968159
  0
POLYLINE
  5
261
102
{ACAD_REACTORS
330
260
102
}
100
AcDbEntity
  8
1
  6
HIDDEN
 62
     5
100
AcDb2dPolyline
 66
     1
 10
0.0
 20
0.0
 30
0.0
  0
VERTEX
  5
262
100
AcDbEntity
  8
1
  6
HIDDEN
 62
     5
100
AcDbVertex
100
AcDb2dVertex
 10
414.1512998305118
 20
932.7454569565016
 30
0.0
  0
VERTEX
  5
263
100
AcDbEntity
  8
1
  6
HIDDEN
 62
     5
100
AcDbVertex
100
AcDb2dVertex
 10
405.0971162817831
 20
931.7433292919515
 30
0.0
  0
VERTEX
  5
264
100
AcDbEntity
  8
1
  6
HIDDEN
 62
     5
100
AcDbVertex
100
AcDb2dVertex
 10
395.5070115445165
 20
931.3292110353863
 30
0.0
  0
VERTEX
  5
265
100
AcDbEntity
  8
1
  6
HIDDEN
 62
     5
100
AcDbVertex
100
AcDb2dVertex
 10
388.8742256774561
 20
931.1645183279445
 30
0.0
  0
VERTEX
  5
266
100
AcDbEntity
  8
1
  6
HIDDEN
 62
     5
100
AcDbVertex
100
AcDb2dVertex
 10
376.9420698092398
 20
930.8242429968553
 30
0.0
  0
VERTEX
  5
267
100
AcDbEntity
  8
1
  6
HIDDEN
 62
     5
100
AcDbVertex
100
AcDb2dVertex
 10
366.1782496000507
 20
930.1096555881482
 30
0.0
  0
VERTEX
  5
268
100
AcDbEntity
  8
1
  6
HIDDEN
 62
     5
100
AcDbVertex
100
AcDb2dVertex
 10
357.1637393266815
 20
929.5631668648907
 30
0.0
  0
VERTEX
  5
269
100
AcDbEntity
  8
1
  6
HIDDEN
 62
     5
100
AcDbVertex
100
AcDb2dVertex
 10
346.9015468435667
 20
928.479712336667
 30
0.0
  0
VERTEX
  5
26A
100
AcDbEntity
  8
1
  6
HIDDEN
 62
     5
100
AcDbVertex
100
AcDb2dVertex
 10
332.7591338813602
 20
926.6619295474191
 30
0.0
  0
VERTEX
  5
26B
100
AcDbEntity
  8
1
  6
HIDDEN
 62
     5
100
AcDbVertex
100
AcDb2dVertex
 10
322.131617581305
 20
924.7336741147366
 30
0.0
  0
VERTEX
  5
26C
100
AcDbEntity
  8
1
  6
HIDDEN
 62
     5
100
AcDbVertex
100
AcDb2dVertex
 10
318.268543833445
 20
923.8897747094785
 30
0.0
  0
VERTEX
  5
26D
100
AcDbEntity
  8
1
  6
HIDDEN
 62
     5
100
AcDbVertex
100
AcDb2dVertex
 10
313.8813158153834
 20
922.8495323382102
 30
0.0
  0
VERTEX
  5
26E
100
AcDbEntity
  8
1
  6
HIDDEN
 62
     5
100
AcDbVertex
100
AcDb2dVertex
 10
311.0268773325683
 20
921.9426799236805
 30
0.0
  0
VERTEX
  5
26F
100
AcDbEntity
  8
1
  6
HIDDEN
 62
     5
100
AcDbVertex
100
AcDb2dVertex
 10
305.1357734288278
 20
919.8751240774425
 30
0.0
  0
VERTEX
  5
270
100
AcDbEntity
  8
1
  6
HIDDEN
 62
     5
100
AcDbVertex
100
AcDb2dVertex
 10
300.6466723159197
 20
917.3583937380618
 30
0.0
  0
VERTEX
  5
271
100
AcDbEntity
  8
1
  6
HIDDEN
 62
     5
100
AcDbVertex
100
AcDb2dVertex
 10
298.1062548081733
 20
915.1540419570762
 30
0.0
  0
VERTEX
  5
272
100
AcDbEntity
  8
1
  6
HIDDEN
 62
     5
100
AcDbVertex
100
AcDb2dVertex
 10
297.5938674563074
 20
914.1733466170702
 30
0.0
  0
VERTEX
  5
273
100
AcDbEntity
  8
1
  6
HIDDEN
 62
     5
100
AcDbVertex
100
AcDb2dVertex
 10
297.932140580967
 20
913.6931007272089
 30
0.0
  0
VERTEX
  5
274
100
AcDbEntity
  8
1
  6
HIDDEN
 62
     5
100
AcDbVertex
100
AcDb2dVertex
 10
298.4888627081696
 20
913.4182580136826
 30
0.0
  0
VERTEX
  5
275
100
AcDbEntity
  8
1
  6
HIDDEN
 62
     5
100
AcDbVertex
100
AcDb2dVertex
 10
302.1246564296642
 20
912.8778862307083
 30
0.0
  0
VERTEX
  5
276
100
AcDbEntity
  8
1
  6
HIDDEN
 62
     5
100
AcDbVertex
100
AcDb2dVertex
 10
308.66632882767
 20
912.9156534295603
 30
0.0
  0
VERTEX
  5
277
100
AcDbEntity
  8
1
  6
HIDDEN
 62
     5
100
AcDbVertex
100
AcDb2dVertex
 10
313.8231451660753
 20
913.2930239773209
 30
0.0
  0
VERTEX
  5
278
100
AcDbEntity
  8
1
  6
HIDDEN
 62
     5
100
AcDbVertex
100
AcDb2dVertex
 10
328.1477850663913
 20
915.3646577837475
 30
0.0
  0
VERTEX
  5
279
100
AcDbEntity
  8
1
  6
HIDDEN
 62
     5
100
AcDbVertex
100
AcDb2dVertex
 10
341.7542768400599
 20
917.77044998098
 30
0.0
  0
VERTEX
  5
27A
100
AcDbEntity
  8
1
  6
HIDDEN
 62
     5
100
AcDbVertex
100
AcDb2dVertex
 10
354.4432468177386
 20
920.3661206960727
 30
0.0
  0
VERTEX
  5
27B
100
AcDbEntity
  8
1
  6
HIDDEN
 62
     5
100
AcDbVertex
100
AcDb2dVertex
 10
368.3230789985717
 20
923.1526894190741
 30
0.0
  0
VERTEX
  5
27C
100
AcDbEntity
  8
1
  6
HIDDEN
 62
     5
100
AcDbVertex
100
AcDb2dVertex
 10
379.0805121023208
 20
925.3264104315382
 30
0.0
  0
VERTEX
  5
27D
100
AcDbEntity
  8
1
  6
HIDDEN
 62
     5
100
AcDbVertex
100
AcDb2dVertex
 10
389.4049044049223
 20
927.4307139865809
 30
0.0
  0
VERTEX
  5
27E
100
AcDbEntity
  8
1
  6
HIDDEN
 62
     5
100
AcDbVertex
100
AcDb2dVertex
 10
399.5299230381826
 20
929.3907376686792
 30
0.0
  0
VERTEX
  5
27F
100
AcDbEntity
  8
1
  6
HIDDEN
 62
     5
100
AcDbVertex
100
AcDb2dVertex
 10
406.8058830015233
 20
931.1186901660088
 30
0.0
  0
VERTEX
  5
280
100
AcDbEntity
  8
1
  6
HIDDEN
 62
     5
100
AcDbVertex
100
AcDb2dVertex
 10
414.0430396302251
 20
932.7281025921459
 30
0.0
  0
SEQEND
  5
281
100
AcDbEntity
  8
1
  6
HIDDEN
 62
     5
  0
CIRCLE
  5
282
102
{ACAD_REACTORS
330
260
102
}
100
AcDbEntity
  8
1
  6
HIDDEN
 62
     5
100
AcDbCircle
 10
336.571221560948
 20
921.7119854342747
 30
0.0
 40
2.622755796968159
  0
POLYLINE
  5
284
102
{ACAD_REACTORS
330
283
102
}
100
AcDbEntity
  8
1
  6
HIDDEN
 62
     5
100
AcDb2dPolyline
 66
     1
 10
0.0
 20
0.0
 30
0.0
  0
VERTEX
  5
285
100
AcDbEntity
  8
1
  6
HIDDEN
 62
     5
100
AcDbVertex
100
AcDb2dVertex
 10
413.6859571882555
 20
907.904759245965
 30
0.0
  0
VERTEX
  5
286
100
AcDbEntity
  8
1
  6
HIDDEN
 62
     5
100
AcDbVertex
100
AcDb2dVertex
 10
404.7689474893817
 20
909.7834560643891
 30
0.0
  0
VERTEX
  5
287
100
AcDbEntity
  8
1
  6
HIDDEN
 62
     5
100
AcDbVertex
100
AcDb2dVertex
 10
395.5217773767517
 20
912.3889972056403
 30
0.0
  0
VERTEX
  5
288
100
AcDbEntity
  8
1
  6
HIDDEN
 62
     5
100
AcDbVertex
100
AcDb2dVertex
 10
389.1633392094007
 20
914.3068282208309
 30
0.0
  0
VERTEX
  5
289
100
AcDbEntity
  8
1
  6
HIDDEN
 62
     5
100
AcDbVertex
100
AcDb2dVertex
 10
377.7112918156761
 20
917.7150955904803
 30
0.0
  0
VERTEX
  5
28A
100
AcDbEntity
  8
1
  6
HIDDEN
 62
     5
100
AcDbVertex
100
AcDb2dVertex
 10
367.2561127686601
 20
920.401963595405
 30
0.0
  0
VERTEX
  5
28B
100
AcDbEntity
  8
1
  6
HIDDEN
 62
     5
100
AcDbVertex
100
AcDb2dVertex
 10
358.5159501950003
 20
922.7015906264112
 30
0.0
  0
VERTEX
  5
28C
100
AcDbEntity
  8
1
  6
HIDDEN
 62
     5
100
AcDbVertex
100
AcDb2dVertex
 10
348.4252250242036
 20
924.8807565969782
 30
0.0
  0
VERTEX
  5
28D
100
AcDbEntity
  8
1
  6
HIDDEN
 62
     5
100
AcDbVertex
100
AcDb2dVertex
 10
334.4199859118522
 20
927.5751085400999
 30
0.0
  0
VERTEX
  5
28E
100
AcDbEntity
  8
1
  6
HIDDEN
 62
     5
100
AcDbVertex
100
AcDb2dVertex
 10
323.7238826868695
 20
929.0650793958452
 30
0.0
  0
VERTEX
  5
28F
100
AcDbEntity
  8
1
  6
HIDDEN
 62
     5
100
AcDbVertex
100
AcDb2dVertex
 10
319.7922220140825
 20
929.4706942241663
 30
0.0
  0
VERTEX
  5
290
100
AcDbEntity
  8
1
  6
HIDDEN
 62
     5
100
AcDbVertex
100
AcDb2dVertex
 10
315.3021136086296
 20
929.8535097300293
 30
0.0
  0
VERTEX
  5
291
100
AcDbEntity
  8
1
  6
HIDDEN
 62
     5
100
AcDbVertex
100
AcDb2dVertex
 10
312.3105012759597
 20
929.8837929906843
 30
0.0
  0
VERTEX
  5
292
100
AcDbEntity
  8
1
  6
HIDDEN
 62
     5
100
AcDbVertex
100
AcDb2dVertex
 10
306.0764627475826
 20
929.7599259522364
 30
0.0
  0
VERTEX
  5
293
100
AcDbEntity
  8
1
  6
HIDDEN
 62
     5
100
AcDbVertex
100
AcDb2dVertex
 10
301.0386662352555
 20
928.7703796761194
 30
0.0
  0
VERTEX
  5
294
100
AcDbEntity
  8
1
  6
HIDDEN
 62
     5
100
AcDbVertex
100
AcDb2dVertex
 10
297.9495533280903
 20
927.4684548416075
 30
0.0
  0
VERTEX
  5
295
100
AcDbEntity
  8
1
  6
HIDDEN
 62
     5
100
AcDbVertex
100
AcDb2dVertex
 10
297.1628182765149
 20
926.696011873865
 30
0.0
  0
VERTEX
  5
296
100
AcDbEntity
  8
1
  6
HIDDEN
 62
     5
100
AcDbVertex
100
AcDb2dVertex
 10
297.3377615441362
 20
926.1330705635577
 30
0.0
  0
VERTEX
  5
297
100
AcDbEntity
  8
1
  6
HIDDEN
 62
     5
100
AcDbVertex
100
AcDb2dVertex
 10
297.7834658286676
 20
925.6979621695037
 30
0.0
  0
VERTEX
  5
298
100
AcDbEntity
  8
1
  6
HIDDEN
 62
     5
100
AcDbVertex
100
AcDb2dVertex
 10
301.0763249255255
 20
924.0469110677921
 30
0.0
  0
VERTEX
  5
299
100
AcDbEntity
  8
1
  6
HIDDEN
 62
     5
100
AcDbVertex
100
AcDb2dVertex
 10
307.3093561613582
 20
922.0368632727227
 30
0.0
  0
VERTEX
  5
29A
100
AcDbEntity
  8
1
  6
HIDDEN
 62
     5
100
AcDbVertex
100
AcDb2dVertex
 10
312.3289986499083
 20
920.7829235710878
 30
0.0
  0
VERTEX
  5
29B
100
AcDbEntity
  8
1
  6
HIDDEN
 62
     5
100
AcDbVertex
100
AcDb2dVertex
 10
326.5850516252973
 20
918.2730051877239
 30
0.0
  0
VERTEX
  5
29C
100
AcDbEntity
  8
1
  6
HIDDEN
 62
     5
100
AcDbVertex
100
AcDb2dVertex
 10
340.2601303238931
 20
916.3054975674286
 30
0.0
  0
VERTEX
  5
29D
100
AcDbEntity
  8
1
  6
HIDDEN
 62
     5
100
AcDbVertex
100
AcDb2dVertex
 10
353.1205676138903
 20
914.8055382946786
 30
0.0
  0
VERTEX
  5
29E
100
AcDbEntity
  8
1
  6
HIDDEN
 62
     5
100
AcDbVertex
100
AcDb2dVertex
 10
367.1718671070419
 20
913.1146810140208
 30
0.0
  0
VERTEX
  5
29F
100
AcDbEntity
  8
1
  6
HIDDEN
 62
     5
100
AcDbVertex
100
AcDb2dVertex
 10
378.0664740606455
 20
911.817529155431
 30
0.0
  0
VERTEX
  5
2A0
100
AcDbEntity
  8
1
  6
HIDDEN
 62
     5
100
AcDbVertex
100
AcDb2dVertex
 10
388.528040213102
 20
910.589794754262
 30
0.0
  0
VERTEX
  5
2A1
100
AcDbEntity
  8
1
  6
HIDDEN
 62
     5
100
AcDbVertex
100
AcDb2dVertex
 10
398.7559392337531
 20
909.2871979375701
 30
0.0
  0
VERTEX
  5
2A2
100
AcDbEntity
  8
1
  6
HIDDEN
 62
     5
100
AcDbVertex
100
AcDb2dVertex
 10
406.203366509412
 20
908.6549568825832
 30
0.0
  0
VERTEX
  5
2A3
100
AcDbEntity
  8
1
  6
HIDDEN
 62
     5
100
AcDbVertex
100
AcDb2dVertex
 10
413.5776969879686
 20
907.9221136103198
 30
0.0
  0
SEQEND
  5
2A4
100
AcDbEntity
  8
1
  6
HIDDEN
 62
     5
  0
CIRCLE
  5
2A5
102
{ACAD_REACTORS
330
283
102
}
100
AcDbEntity
  8
1
  6
HIDDEN
 62
     5
100
AcDbCircle
 10
336.5341807095651
 20
921.675167427958
 30
0.0
 40
2.622755796968159
  0
LINE
  5
2A6
100
AcDbEntity
  8
PLAN10
  6
CONTINUOUS
 62
     5
100
AcDbLine
 10
497.8751576322738
 20
929.8695319579822
 30
0.0
 11
518.5261083567082
 21
927.3175128802266
 31
0.0
  0
LINE
  5
2A7
100
AcDbEntity
  8
PLAN10
  6
CONTINUOUS
 62
     5
100
AcDbLine
 10
518.5261083567082
 20
927.3175128802266
 30
0.0
 11
534.0142945441774
 21
926.5883605987472
 31
0.0
  0
LINE
  5
2A8
100
AcDbEntity
  8
PLAN10
  6
CONTINUOUS
 62
     5
100
AcDbLine
 10
534.0142945441774
 20
926.5883605987472
 30
0.0
 11
566.1640876007441
 21
925.4946391302395
 31
0.0
  0
LINE
  5
2A9
100
AcDbEntity
  8
PLAN10
  6
CONTINUOUS
 62
     5
100
AcDbLine
 10
566.1640876007441
 20
925.1555485325233
 30
0.0
 11
693.5488092770542
 21
923.2946506849444
 31
0.0
  0
LINE
  5
2AA
100
AcDbEntity
  8
1
  6
BYBLOCK
 62
     5
100
AcDbLine
 10
685.0946717594759
 20
904.1846400861979
 30
0.0
 11
613.6031526850274
 21
904.1846400861979
 31
0.0
  0
POLYLINE
  5
2AB
100
AcDbEntity
  8
1
  6
BYBLOCK
 62
     5
100
AcDb2dPolyline
 66
     1
 10
0.0
 20
0.0
 30
0.0
  0
VERTEX
  5
2AC
100
AcDbEntity
  8
1
  6
BYBLOCK
 62
     5
100
AcDbVertex
100
AcDb2dVertex
 10
652.7284380775287
 20
901.838299828544
 30
0.0
  0
VERTEX
  5
2AD
100
AcDbEntity
  8
1
  6
BYBLOCK
 62
     5
100
AcDbVertex
100
AcDb2dVertex
 10
655.7452950462562
 20
902.0460754098671
 30
0.0
  0
VERTEX
  5
2AE
100
AcDbEntity
  8
1
  6
BYBLOCK
 62
     5
100
AcDbVertex
100
AcDb2dVertex
 10
658.776915083332
 20
901.749579260467
 30
0.0
  0
VERTEX
  5
2AF
100
AcDbEntity
  8
1
  6
BYBLOCK
 62
     5
100
AcDbVertex
100
AcDb2dVertex
 10
668.0249487661178
 20
899.7090061946952
 30
0.0
  0
VERTEX
  5
2B0
100
AcDbEntity
  8
1
  6
BYBLOCK
 62
     5
100
AcDbVertex
100
AcDb2dVertex
 10
675.1253348164084
 20
897.2691905725771
 30
0.0
  0
VERTEX
  5
2B1
100
AcDbEntity
  8
1
  6
BYBLOCK
 62
     5
100
AcDbVertex
100
AcDb2dVertex
 10
679.9465846036429
 20
895.7609409152672
 30
0.0
  0
VERTEX
  5
2B2
100
AcDbEntity
  8
1
  6
BYBLOCK
 62
     5
100
AcDbVertex
100
AcDb2dVertex
 10
682.4752029068378
 20
895.2837951581772
 30
0.0
  0
VERTEX
  5
2B3
100
AcDbEntity
  8
1
  6
BYBLOCK
 62
     5
100
AcDbVertex
100
AcDb2dVertex
 10
685.0308116519991
 20
895.1398969387282
 30
0.0
  0
VERTEX
  5
2B4
100
AcDbEntity
  8
1
  6
BYBLOCK
 62
     5
100
AcDbVertex
100
AcDb2dVertex
 10
687.4387816205881
 20
895.4160098697391
 30
0.0
  0
VERTEX
  5
2B5
100
AcDbEntity
  8
1
  6
BYBLOCK
 62
     5
100
AcDbVertex
100
AcDb2dVertex
 10
689.6767432651521
 20
896.2489040396908
 30
0.0
  0
VERTEX
  5
2B6
100
AcDbEntity
  8
1
  6
BYBLOCK
 62
     5
100
AcDbVertex
100
AcDb2dVertex
 10
691.7049437981956
 20
897.9502451539607
 30
0.0
  0
VERTEX
  5
2B7
100
AcDbEntity
  8
1
  6
BYBLOCK
 62
     5
100
AcDbVertex
100
AcDb2dVertex
 10
693.2707658338178
 20
900.1082487510421
 30
0.0
  0
SEQEND
  5
2B8
100
AcDbEntity
  8
1
  6
BYBLOCK
 62
     5
  0
LINE
  5
2B9
100
AcDbEntity
  8
1
  6
BYBLOCK
 62
     1
100
AcDbLine
 10
609.7257060925656
 20
451.5085396926185
 30
0.0
 11
743.3104725497741
 21
450.4025099159435
 31
0.0
  0
LINE
  5
2BA
100
AcDbEntity
  8
1
  6
BYBLOCK
 62
     1
100
AcDbLine
 10
123.8040459543312
 20
461.6960492536498
 30
0.0
 11
699.6786787756763
 21
461.6168958200296
 31
0.0
  0
LINE
  5
2BB
100
AcDbEntity
  8
1
  6
BYBLOCK
 62
     1
100
AcDbLine
 10
123.7379968252661
 20
441.1803116462995
 30
0.0
 11
699.6126296466116
 21
441.1011582126793
 31
0.0
  0
LINE
  5
2BC
100
AcDbEntity
  8
1
  6
BYBLOCK
 62
     1
100
AcDbLine
 10
123.7083494833331
 20
461.6736422963584
 30
0.0
 11
123.6649790960077
 21
441.1278247763924
 31
0.0
  0
LINE
  5
2BD
100
AcDbEntity
  8
1
  6
BYBLOCK
 62
     1
100
AcDbLine
 10
699.6233192860901
 20
461.6228293651933
 30
0.0
 11
699.5799488987647
 21
441.0770118452274
 31
0.0
  0
POLYLINE
  5
2BE
100
AcDbEntity
  8
1
  6
BYBLOCK
 62
     1
100
AcDb2dPolyline
 66
     1
 10
0.0
 20
0.0
 30
0.0
  0
VERTEX
  5
2BF
100
AcDbEntity
  8
1
  6
BYBLOCK
 62
     1
100
AcDbVertex
100
AcDb2dVertex
 10
630.7642855193122
 20
451.393009543749
 30
0.0
  0
VERTEX
  5
2C0
100
AcDbEntity
  8
1
  6
BYBLOCK
 62
     1
100
AcDbVertex
100
AcDb2dVertex
 10
631.1348991889819
 20
443.2081567631085
 30
0.0
  0
VERTEX
  5
2C1
100
AcDbEntity
  8
1
  6
BYBLOCK
 62
     1
100
AcDbVertex
100
AcDb2dVertex
 10
631.8520497353273
 20
435.0420233565987
 30
0.0
  0
VERTEX
  5
2C2
100
AcDbEntity
  8
1
  6
BYBLOCK
 62
     1
100
AcDbVertex
100
AcDb2dVertex
 10
634.8467612261791
 20
409.1458785008606
 30
0.0
  0
VERTEX
  5
2C3
100
AcDbEntity
  8
1
  6
BYBLOCK
 62
     1
100
AcDbVertex
100
AcDb2dVertex
 10
642.5513576728206
 20
360.787649299264
 30
0.0
  0
VERTEX
  5
2C4
100
AcDbEntity
  8
1
  6
BYBLOCK
 62
     1
100
AcDbVertex
100
AcDb2dVertex
 10
645.0246324851731
 20
350.9389438837203
 30
0.0
  0
VERTEX
  5
2C5
100
AcDbEntity
  8
1
  6
BYBLOCK
 62
     1
100
AcDbVertex
100
AcDb2dVertex
 10
648.5905766164241
 20
341.4449760219109
 30
0.0
  0
VERTEX
  5
2C6
100
AcDbEntity
  8
1
  6
BYBLOCK
 62
     1
100
AcDbVertex
100
AcDb2dVertex
 10
652.0043445233617
 20
335.4369515609509
 30
0.0
  0
VERTEX
  5
2C7
100
AcDbEntity
  8
1
  6
BYBLOCK
 62
     1
100
AcDbVertex
100
AcDb2dVertex
 10
656.4908102034215
 20
330.1956881818369
 30
0.0
  0
VERTEX
  5
2C8
100
AcDbEntity
  8
1
  6
BYBLOCK
 62
     1
100
AcDbVertex
100
AcDb2dVertex
 10
661.4586536711854
 20
326.585830361123
 30
0.0
  0
VERTEX
  5
2C9
100
AcDbEntity
  8
1
  6
BYBLOCK
 62
     1
100
AcDbVertex
100
AcDb2dVertex
 10
667.0622332584484
 20
323.9878247407283
 30
0.0
  0
VERTEX
  5
2CA
100
AcDbEntity
  8
1
  6
BYBLOCK
 62
     1
100
AcDbVertex
100
AcDb2dVertex
 10
674.2626551524272
 20
321.8035642086361
 30
0.0
  0
VERTEX
  5
2CB
100
AcDbEntity
  8
1
  6
BYBLOCK
 62
     1
100
AcDbVertex
100
AcDb2dVertex
 10
681.69030671573
 20
320.5735229212625
 30
0.0
  0
VERTEX
  5
2CC
100
AcDbEntity
  8
1
  6
BYBLOCK
 62
     1
100
AcDbVertex
100
AcDb2dVertex
 10
688.0404245482914
 20
320.3659976659854
 30
0.0
  0
VERTEX
  5
2CD
100
AcDbEntity
  8
1
  6
BYBLOCK
 62
     1
100
AcDbVertex
100
AcDb2dVertex
 10
694.3307404369242
 20
321.1746638067129
 30
0.0
  0
SEQEND
  5
2CE
100
AcDbEntity
  8
1
  6
BYBLOCK
 62
     1
  0
POLYLINE
  5
2CF
100
AcDbEntity
  8
1
  6
BYBLOCK
 62
     1
100
AcDb2dPolyline
 66
     1
 10
0.0
 20
0.0
 30
0.0
  0
VERTEX
  5
2D0
100
AcDbEntity
  8
1
  6
BYBLOCK
 62
     1
100
AcDbVertex
100
AcDb2dVertex
 10
630.7642855193128
 20
451.42683532929
 30
0.0
  0
VERTEX
  5
2D1
100
AcDbEntity
  8
1
  6
BYBLOCK
 62
     1
100
AcDbVertex
100
AcDb2dVertex
 10
631.1349163658633
 20
459.4820008992995
 30
0.0
  0
VERTEX
  5
2D2
100
AcDbEntity
  8
1
  6
BYBLOCK
 62
     1
100
AcDbVertex
100
AcDb2dVertex
 10
631.8520497353273
 20
467.5181480069828
 30
0.0
  0
VERTEX
  5
2D3
100
AcDbEntity
  8
1
  6
BYBLOCK
 62
     1
100
AcDbVertex
100
AcDb2dVertex
 10
634.8467612261799
 20
493.0030306465376
 30
0.0
  0
VERTEX
  5
2D4
100
AcDbEntity
  8
1
  6
BYBLOCK
 62
     1
100
AcDbVertex
100
AcDb2dVertex
 10
642.551357672821
 20
540.5932724653429
 30
0.0
  0
VERTEX
  5
2D5
100
AcDbEntity
  8
1
  6
BYBLOCK
 62
     1
100
AcDbVertex
100
AcDb2dVertex
 10
645.0264483913439
 20
550.2905736726875
 30
0.0
  0
VERTEX
  5
2D6
100
AcDbEntity
  8
1
  6
BYBLOCK
 62
     1
100
AcDbVertex
100
AcDb2dVertex
 10
648.5905766164241
 20
559.6287606105744
 30
0.0
  0
VERTEX
  5
2D7
100
AcDbEntity
  8
1
  6
BYBLOCK
 62
     1
100
AcDbVertex
100
AcDb2dVertex
 10
652.0101266139731
 20
565.5489899117803
 30
0.0
  0
VERTEX
  5
2D8
100
AcDbEntity
  8
1
  6
BYBLOCK
 62
     1
100
AcDbVertex
100
AcDb2dVertex
 10
656.4908102034215
 20
570.6993961040012
 30
0.0
  0
VERTEX
  5
2D9
100
AcDbEntity
  8
1
  6
BYBLOCK
 62
     1
100
AcDbVertex
100
AcDb2dVertex
 10
661.4654113509909
 20
574.2565870603551
 30
0.0
  0
VERTEX
  5
2DA
100
AcDbEntity
  8
1
  6
BYBLOCK
 62
     1
100
AcDbVertex
100
AcDb2dVertex
 10
667.0622332584484
 20
576.8086711378092
 30
0.0
  0
VERTEX
  5
2DB
100
AcDbEntity
  8
1
  6
BYBLOCK
 62
     1
100
AcDbVertex
100
AcDb2dVertex
 10
674.2659623943179
 20
578.9591535694448
 30
0.0
  0
VERTEX
  5
2DC
100
AcDbEntity
  8
1
  6
BYBLOCK
 62
     1
100
AcDbVertex
100
AcDb2dVertex
 10
681.6903067157308
 20
580.1687496996891
 30
0.0
  0
VERTEX
  5
2DD
100
AcDbEntity
  8
1
  6
BYBLOCK
 62
     1
100
AcDbVertex
100
AcDb2dVertex
 10
688.0395213711164
 20
580.3732443648121
 30
0.0
  0
VERTEX
  5
2DE
100
AcDbEntity
  8
1
  6
BYBLOCK
 62
     1
100
AcDbVertex
100
AcDb2dVertex
 10
694.3307404369246
 20
579.5771556612372
 30
0.0
  0
SEQEND
  5
2DF
100
AcDbEntity
  8
1
  6
BYBLOCK
 62
     1
  0
LINE
  5
2E0
100
AcDbEntity
  8
1
  6
BYBLOCK
 62
     1
100
AcDbLine
 10
693.7028550127948
 20
579.7687654921693
 30
0.0
 11
693.7028550127948
 21
321.5881123908548
 31
0.0
  0
POLYLINE
  5
2E2
102
{ACAD_REACTORS
330
2E1
102
}
100
AcDbEntity
  8
1
  6
BYBLOCK
 62
     1
100
AcDb2dPolyline
 66
     1
 10
0.0
 20
0.0
 30
0.0
  0
VERTEX
  5
2E3
100
AcDbEntity
  8
1
  6
BYBLOCK
 62
     1
100
AcDbVertex
100
AcDb2dVertex
 10
309.0078323869125
 20
842.3906141106115
 30
0.0
  0
VERTEX
  5
2E4
100
AcDbEntity
  8
1
  6
BYBLOCK
 62
     1
100
AcDbVertex
100
AcDb2dVertex
 10
309.969617202839
 20
850.8094075348592
 30
0.0
  0
VERTEX
  5
2E5
100
AcDbEntity
  8
1
  6
BYBLOCK
 62
     1
100
AcDbVertex
100
AcDb2dVertex
 10
310.8868457332737
 20
853.3427859865938
 30
0.0
  0
VERTEX
  5
2E6
100
AcDbEntity
  8
1
  6
BYBLOCK
 62
     1
100
AcDbVertex
100
AcDb2dVertex
 10
312.3541063631344
 20
855.5876416405126
 30
0.0
  0
VERTEX
  5
2E7
100
AcDbEntity
  8
1
  6
BYBLOCK
 62
     1
100
AcDbVertex
100
AcDb2dVertex
 10
314.5268048718113
 20
857.6101593451342
 30
0.0
  0
VERTEX
  5
2E8
100
AcDbEntity
  8
1
  6
BYBLOCK
 62
     1
100
AcDbVertex
100
AcDb2dVertex
 10
317.1230846837248
 20
859.0006660016944
 30
0.0
  0
VERTEX
  5
2E9
100
AcDbEntity
  8
1
  6
BYBLOCK
 62
     1
100
AcDbVertex
100
AcDb2dVertex
 10
322.4856435452577
 20
860.2838883882432
 30
0.0
  0
VERTEX
  5
2EA
100
AcDbEntity
  8
1
  6
BYBLOCK
 62
     1
100
AcDbVertex
100
AcDb2dVertex
 10
327.9857575250697
 20
860.9065940469388
 30
0.0
  0
SEQEND
  5
2EB
100
AcDbEntity
  8
1
  6
BYBLOCK
 62
     1
  0
LINE
  5
2EC
102
{ACAD_REACTORS
330
2E1
102
}
100
AcDbEntity
  8
1
  6
BYBLOCK
 62
     1
100
AcDbLine
 10
292.3243801964947
 20
461.6695784183457
 30
0.0
 11
422.3243801964946
 21
461.6695784183457
 31
0.0
  0
LINE
  5
2ED
102
{ACAD_REACTORS
330
2E1
102
}
100
AcDbEntity
  8
1
  6
HIDDEN
 62
     1
100
AcDbLine
 10
335.4126802670758
 20
461.6880447018314
 30
0.0
 11
335.6905115308309
 21
860.7216009681163
 31
0.0
  0
LINE
  5
2EE
102
{ACAD_REACTORS
330
2E1
102
}
100
AcDbEntity
  8
1
  6
BYBLOCK
 62
     1
100
AcDbLine
 10
327.7117493601242
 20
861.0130255355514
 30
0.0
 11
389.8797088753661
 21
861.0130255355514
 31
0.0
  0
LINE
  5
2EF
102
{ACAD_REACTORS
330
2E1
102
}
100
AcDbEntity
  8
1
  6
BYBLOCK
 62
     1
100
AcDbLine
 10
422.1908807768618
 20
461.7088343439468
 30
0.0
 11
389.4258338092189
 21
861.027394206957
 31
0.0
  0
LINE
  5
2F0
102
{ACAD_REACTORS
330
2E1
102
}
100
AcDbEntity
  8
1
  6
BYBLOCK
 62
     1
100
AcDbLine
 10
309.0264615311872
 20
842.6403351658791
 30
0.0
 11
292.3149717123491
 21
461.7969481393787
 31
0.0
  0
POLYLINE
  5
2F2
102
{ACAD_REACTORS
330
2F1
102
}
100
AcDbEntity
  8
1
  6
BYBLOCK
 62
     1
100
AcDb2dPolyline
 66
     1
 10
0.0
 20
0.0
 30
0.0
  0
VERTEX
  5
2F3
100
AcDbEntity
  8
1
  6
BYBLOCK
 62
     1
100
AcDbVertex
100
AcDb2dVertex
 10
308.9733605000499
 20
60.41357432456528
 30
0.0
  0
VERTEX
  5
2F4
100
AcDbEntity
  8
1
  6
BYBLOCK
 62
     1
100
AcDbVertex
100
AcDb2dVertex
 10
309.9351453159765
 20
51.9947809003178
 30
0.0
  0
VERTEX
  5
2F5
100
AcDbEntity
  8
1
  6
BYBLOCK
 62
     1
100
AcDbVertex
100
AcDb2dVertex
 10
310.8523738464112
 20
49.46140244858337
 30
0.0
  0
VERTEX
  5
2F6
100
AcDbEntity
  8
1
  6
BYBLOCK
 62
     1
100
AcDbVertex
100
AcDb2dVertex
 10
312.3196344762719
 20
47.21654679466431
 30
0.0
  0
VERTEX
  5
2F7
100
AcDbEntity
  8
1
  6
BYBLOCK
 62
     1
100
AcDbVertex
100
AcDb2dVertex
 10
314.4923329849488
 20
45.19402909004266
 30
0.0
  0
VERTEX
  5
2F8
100
AcDbEntity
  8
1
  6
BYBLOCK
 62
     1
100
AcDbVertex
100
AcDb2dVertex
 10
317.0886127968622
 20
43.80352243348254
 30
0.0
  0
VERTEX
  5
2F9
100
AcDbEntity
  8
1
  6
BYBLOCK
 62
     1
100
AcDbVertex
100
AcDb2dVertex
 10
322.4511716583951
 20
42.52030004693367
 30
0.0
  0
VERTEX
  5
2FA
100
AcDbEntity
  8
1
  6
BYBLOCK
 62
     1
100
AcDbVertex
100
AcDb2dVertex
 10
327.9512856382071
 20
41.89759438823818
 30
0.0
  0
SEQEND
  5
2FB
100
AcDbEntity
  8
1
  6
BYBLOCK
 62
     1
  0
LINE
  5
2FC
102
{ACAD_REACTORS
330
2F1
102
}
100
AcDbEntity
  8
1
  6
BYBLOCK
 62
     1
100
AcDbLine
 10
292.2899083096321
 20
441.134610016831
 30
0.0
 11
422.2899083096321
 21
441.134610016831
 31
0.0
  0
LINE
  5
2FD
102
{ACAD_REACTORS
330
2F1
102
}
100
AcDbEntity
  8
1
  6
HIDDEN
 62
     1
100
AcDbLine
 10
335.3782083802132
 20
441.1161437333454
 30
0.0
 11
335.6560396439683
 21
42.08258746706068
 31
0.0
  0
LINE
  5
2FE
102
{ACAD_REACTORS
330
2F1
102
}
100
AcDbEntity
  8
1
  6
BYBLOCK
 62
     1
100
AcDbLine
 10
327.6772774732616
 20
41.79116289962557
 30
0.0
 11
389.8452369885035
 21
41.79116289962557
 31
0.0
  0
LINE
  5
2FF
102
{ACAD_REACTORS
330
2F1
102
}
100
AcDbEntity
  8
1
  6
BYBLOCK
 62
     1
100
AcDbLine
 10
422.1564088899993
 20
441.09535409123
 30
0.0
 11
389.3913619223563
 21
41.77679422821993
 31
0.0
  0
LINE
  5
300
102
{ACAD_REACTORS
330
2F1
102
}
100
AcDbEntity
  8
1
  6
BYBLOCK
 62
     1
100
AcDbLine
 10
308.9919896443246
 20
60.16385326929778
 30
0.0
 11
292.2804998254865
 21
441.0072402957982
 31
0.0
  0
ENDSEC
  0
SECTION
  2
OBJECTS
  0
DICTIONARY
  5
C
100
AcDbDictionary
  3
ACAD_GROUP
350
D
  3
ACAD_MLINESTYLE
350
1B
  0
DICTIONARY
  5
D
102
{ACAD_REACTORS
330
C
102
}
100
AcDbDictionary
  3
*A1
350
260
  3
*A2
350
283
  3
*A3
350
2E1
  3
*A4
350
2F1
  0
DICTIONARY
  5
1B
102
{ACAD_REACTORS
330
C
102
}
100
AcDbDictionary
  3
STANDARD
350
1C
  0
GROUP
  5
260
102
{ACAD_REACTORS
330
D
102
}
100
AcDbGroup
300

 70
     0
 71
     1
340
261
340
282
  0
GROUP
  5
283
102
{ACAD_REACTORS
330
D
102
}
100
AcDbGroup
300

 70
     0
 71
     1
340
284
340
2A5
  0
GROUP
  5
2E1
102
{ACAD_REACTORS
330
D
102
}
100
AcDbGroup
300

 70
     0
 71
     1
340
2E2
340
2EC
340
2ED
340
2EE
340
2EF
340
2F0
  0
GROUP
  5
2F1
102
{ACAD_REACTORS
330
D
102
}
100
AcDbGroup
300

 70
     0
 71
     1
340
2F2
340
2FC
340
2FD
340
2FE
340
2FF
340
300
  0
MLINESTYLE
  5
1C
102
{ACAD_REACTORS
330
1B
102
}
100
AcDbMlineStyle
  2
STANDARD
 70
     0
  3

 62
   256
 51
90.0
 52
90.0
 71
     2
 49
0.5
 62
   256
  6
BYLAYER
 49
-0.5
 62
   256
  6
BYLAYER
  0
ENDSEC
  0
EOF
